  0
SECTION
  2
HEADER
  9
$ACADVER
  1
AC1018
  9
$ACADMAINTVER
 70
    77
  9
$DWGCODEPAGE
  3
ANSI_1252
  9
$INSBASE
 10
0.0
 20
0.0
 30
0.0
  9
$EXTMIN
 10
17.68246628592795
 20
3.835439311274228
 30
0.0
  9
$EXTMAX
 10
81.94070930773206
 20
24.96835667297113
 30
0.0
  9
$LIMMIN
 10
0.0
 20
0.0
  9
$LIMMAX
 10
17.0
 20
11.0
  9
$ORTHOMODE
 70
     0
  9
$REGENMODE
 70
     1
  9
$FILLMODE
 70
     1
  9
$QTEXTMODE
 70
     0
  9
$MIRRTEXT
 70
     1
  9
$LTSCALE
 40
1.0
  9
$ATTMODE
 70
     1
  9
$TEXTSIZE
 40
2.444086416260688
  9
$TRACEWID
 40
0.05
  9
$TEXTSTYLE
  7
STANDARD
  9
$CLAYER
  8
lip
  9
$CELTYPE
  6
ByLayer
  9
$CECOLOR
 62
   256
  9
$CELTSCALE
 40
1.0
  9
$DISPSILH
 70
     0
  9
$DIMSCALE
 40
1.0
  9
$DIMASZ
 40
0.1
  9
$DIMEXO
 40
0.05
  9
$DIMDLI
 40
0.5
  9
$DIMRND
 40
0.0
  9
$DIMDLE
 40
0.0
  9
$DIMEXE
 40
0.1
  9
$DIMTP
 40
0.1
  9
$DIMTM
 40
0.1
  9
$DIMTXT
 40
0.12
  9
$DIMCEN
 40
0.0
  9
$DIMTSZ
 40
0.0
  9
$DIMTOL
 70
     0
  9
$DIMLIM
 70
     0
  9
$DIMTIH
 70
     1
  9
$DIMTOH
 70
     1
  9
$DIMSE1
 70
     0
  9
$DIMSE2
 70
     0
  9
$DIMTAD
 70
     0
  9
$DIMZIN
 70
     7
  9
$DIMBLK
  1

  9
$DIMASO
 70
     1
  9
$DIMSHO
 70
     1
  9
$DIMPOST
  1

  9
$DIMAPOST
  1
mm
  9
$DIMALT
 70
     0
  9
$DIMALTD
 70
     2
  9
$DIMALTF
 40
25.4
  9
$DIMLFAC
 40
1.0
  9
$DIMTOFL
 70
     0
  9
$DIMTVP
 40
0.0
  9
$DIMTIX
 70
     0
  9
$DIMSOXD
 70
     0
  9
$DIMSAH
 70
     0
  9
$DIMBLK1
  1

  9
$DIMBLK2
  1

  9
$DIMSTYLE
  2
AM_ANSI
  9
$DIMCLRD
 70
   256
  9
$DIMCLRE
 70
   256
  9
$DIMCLRT
 70
     2
  9
$DIMTFAC
 40
0.71
  9
$DIMGAP
 40
0.06
  9
$DIMJUST
 70
     0
  9
$DIMSD1
 70
     0
  9
$DIMSD2
 70
     0
  9
$DIMTOLJ
 70
     1
  9
$DIMTZIN
 70
     7
  9
$DIMALTZ
 70
     0
  9
$DIMALTTZ
 70
     0
  9
$DIMUPT
 70
     0
  9
$DIMDEC
 70
     4
  9
$DIMTDEC
 70
     4
  9
$DIMALTU
 70
     2
  9
$DIMALTTD
 70
     4
  9
$DIMTXSTY
  7
STANDARD
  9
$DIMAUNIT
 70
     0
  9
$DIMADEC
 70
     0
  9
$DIMALTRND
 40
0.0
  9
$DIMAZIN
 70
     2
  9
$DIMDSEP
 70
    46
  9
$DIMATFIT
 70
     3
  9
$DIMFRAC
 70
     0
  9
$DIMLDRBLK
  1

  9
$DIMLUNIT
 70
     2
  9
$DIMLWD
 70
    -1
  9
$DIMLWE
 70
    -1
  9
$DIMTMOVE
 70
     0
  9
$LUNITS
 70
     2
  9
$LUPREC
 70
     4
  9
$SKETCHINC
 40
0.1
  9
$FILLETRAD
 40
0.25
  9
$AUNITS
 70
     0
  9
$AUPREC
 70
     0
  9
$MENU
  1
.
  9
$ELEVATION
 40
0.0
  9
$PELEVATION
 40
0.0
  9
$THICKNESS
 40
0.0
  9
$LIMCHECK
 70
     0
  9
$CHAMFERA
 40
0.125
  9
$CHAMFERB
 40
0.125
  9
$CHAMFERC
 40
1.0
  9
$CHAMFERD
 40
0.0
  9
$SKPOLY
 70
     0
  9
$TDCREATE
 40
2455264.408809051
  9
$TDUCREATE
 40
2455264.617142384
  9
$TDUPDATE
 40
2455264.471061551
  9
$TDUUPDATE
 40
2455264.679394884
  9
$TDINDWG
 40
0.0627973843
  9
$TDUSRTIMER
 40
0.0627973843
  9
$USRTIMER
 70
     1
  9
$ANGBASE
 50
0.0
  9
$ANGDIR
 70
     0
  9
$PDMODE
 70
     0
  9
$PDSIZE
 40
0.0
  9
$PLINEWID
 40
0.0
  9
$SPLFRAME
 70
     0
  9
$SPLINETYPE
 70
     6
  9
$SPLINESEGS
 70
     8
  9
$HANDSEED
  5
199
  9
$SURFTAB1
 70
     6
  9
$SURFTAB2
 70
     6
  9
$SURFTYPE
 70
     6
  9
$SURFU
 70
     6
  9
$SURFV
 70
     6
  9
$UCSBASE
  2

  9
$UCSNAME
  2

  9
$UCSORG
 10
0.0
 20
0.0
 30
0.0
  9
$UCSXDIR
 10
1.0
 20
0.0
 30
0.0
  9
$UCSYDIR
 10
0.0
 20
1.0
 30
0.0
  9
$UCSORTHOREF
  2

  9
$UCSORTHOVIEW
 70
     0
  9
$UCSORGTOP
 10
0.0
 20
0.0
 30
0.0
  9
$UCSORGBOTTOM
 10
0.0
 20
0.0
 30
0.0
  9
$UCSORGLEFT
 10
0.0
 20
0.0
 30
0.0
  9
$UCSORGRIGHT
 10
0.0
 20
0.0
 30
0.0
  9
$UCSORGFRONT
 10
0.0
 20
0.0
 30
0.0
  9
$UCSORGBACK
 10
0.0
 20
0.0
 30
0.0
  9
$PUCSBASE
  2

  9
$PUCSNAME
  2

  9
$PUCSORG
 10
0.0
 20
0.0
 30
0.0
  9
$PUCSXDIR
 10
1.0
 20
0.0
 30
0.0
  9
$PUCSYDIR
 10
0.0
 20
1.0
 30
0.0
  9
$PUCSORTHOREF
  2

  9
$PUCSORTHOVIEW
 70
     0
  9
$PUCSORGTOP
 10
0.0
 20
0.0
 30
0.0
  9
$PUCSORGBOTTOM
 10
0.0
 20
0.0
 30
0.0
  9
$PUCSORGLEFT
 10
0.0
 20
0.0
 30
0.0
  9
$PUCSORGRIGHT
 10
0.0
 20
0.0
 30
0.0
  9
$PUCSORGFRONT
 10
0.0
 20
0.0
 30
0.0
  9
$PUCSORGBACK
 10
0.0
 20
0.0
 30
0.0
  9
$USERI1
 70
     0
  9
$USERI2
 70
     0
  9
$USERI3
 70
     0
  9
$USERI4
 70
     0
  9
$USERI5
 70
     0
  9
$USERR1
 40
0.0
  9
$USERR2
 40
0.0
  9
$USERR3
 40
0.0
  9
$USERR4
 40
0.0
  9
$USERR5
 40
0.0
  9
$WORLDVIEW
 70
     1
  9
$SHADEDGE
 70
     3
  9
$SHADEDIF
 70
    70
  9
$TILEMODE
 70
     1
  9
$MAXACTVP
 70
    64
  9
$PINSBASE
 10
0.0
 20
0.0
 30
0.0
  9
$PLIMCHECK
 70
     0
  9
$PEXTMIN
 10
1.000000000000000E+20
 20
1.000000000000000E+20
 30
1.000000000000000E+20
  9
$PEXTMAX
 10
-1.000000000000000E+20
 20
-1.000000000000000E+20
 30
-1.000000000000000E+20
  9
$PLIMMIN
 10
0.0
 20
0.0
  9
$PLIMMAX
 10
12.0
 20
9.0
  9
$UNITMODE
 70
     0
  9
$VISRETAIN
 70
     1
  9
$PLINEGEN
 70
     0
  9
$PSLTSCALE
 70
     1
  9
$TREEDEPTH
 70
  3020
  9
$CMLSTYLE
  2
Standard
  9
$CMLJUST
 70
     0
  9
$CMLSCALE
 40
1.0
  9
$PROXYGRAPHICS
 70
     1
  9
$MEASUREMENT
 70
     0
  9
$CELWEIGHT
370
    -1
  9
$ENDCAPS
280
     0
  9
$JOINSTYLE
280
     0
  9
$LWDISPLAY
290
     0
  9
$INSUNITS
 70
     1
  9
$HYPERLINKBASE
  1

  9
$STYLESHEET
  1

  9
$XEDIT
290
     1
  9
$CEPSNTYPE
380
     0
  9
$PSTYLEMODE
290
     1
  9
$FINGERPRINTGUID
  2
{878923CD-676D-4EE8-830D-882882FE818F}
  9
$VERSIONGUID
  2
{A09837E2-226D-4C06-98FF-858EA2DA886E}
  9
$EXTNAMES
290
     1
  9
$PSVPSCALE
 40
0.0
  9
$OLESTARTUP
290
     0
  9
$SORTENTS
280
   127
  9
$INDEXCTL
280
     0
  9
$HIDETEXT
280
     1
  9
$XCLIPFRAME
290
     0
  9
$HALOGAP
280
     0
  9
$OBSCOLOR
 70
   257
  9
$OBSLTYPE
280
     0
  9
$INTERSECTIONDISPLAY
280
     0
  9
$INTERSECTIONCOLOR
 70
   257
  9
$DIMASSOC
280
     2
  9
$PROJECTNAME
  1

  0
ENDSEC
  0
SECTION
  2
CLASSES
  0
CLASS
  1
ACDBDICTIONARYWDFLT
  2
AcDbDictionaryWithDefault
  3
ObjectDBX Classes
 90
        0
 91
        1
280
     0
281
     0
  0
CLASS
  1
ACME_DOCUMENT
  2
AcMeDbDoc
  3
AcMeServices
 90
        0
 91
        0
280
     0
281
     0
  0
CLASS
  1
AMGSETTINGSOBJ
  2
AmgSettingsObj
  3
"AcadM|Product Description: AutoCAD Mechanical 2000|Company: Autodesk"
 90
        0
 91
        4
280
     0
281
     0
  0
CLASS
  1
ACMESCOPE
  2
AcMeScope
  3
AcMeServices
 90
        0
 91
        1
280
     0
281
     0
  0
CLASS
  1
ACMECOMMANDHISTORY
  2
AcMeCommandHistory
  3
AcMeServices
 90
        0
 91
        0
280
     0
281
     0
  0
CLASS
  1
ACIMSYSVARMAN
  2
AcImSysVarManager
  3
AcMeServices
 90
        0
 91
        3
280
     0
281
     0
  0
CLASS
  1
ACIMREALSYSVAR
  2
AcImRealSysVar
  3
AcMeServices
 90
        0
 91
        1
280
     0
281
     0
  0
CLASS
  1
ACIMINTSYSVAR
  2
AcImIntSysVar
  3
AcMeServices
 90
        0
 91
       25
280
     0
281
     0
  0
CLASS
  1
ACMEDRAWINGMAN
  2
AcMeDrawingMan
  3
AcMeServices
 90
        0
 91
        0
280
     0
281
     0
  0
CLASS
  1
ACMEVIEW
  2
AcMeView
  3
AcMeServices
 90
        0
 91
        0
280
     0
281
     0
  0
CLASS
  1
ACDBENTITYCACHE
  2
AcMeEntityCache
  3
AcMeServices
 90
        0
 91
        0
280
     0
281
     0
  0
CLASS
  1
GSMANAGER
  2
AcMeGSManager
  3
AcMeServices
 90
        0
 91
        0
280
     0
281
     0
  0
CLASS
  1
AMDTINTERNALREACTOR
  2
AmdtInternalReactor
  3
AcMeServices
 90
        0
 91
        1
280
     0
281
     0
  0
CLASS
  1
ACMESTATEMGR
  2
AcMeStateMgr
  3
AcMeServices
 90
        0
 91
        1
280
     0
281
     0
  0
CLASS
  1
ACGREFMASTER
  2
AcGrefMaster
  3
AcAttribServices
 90
        0
 91
        1
280
     0
281
     0
  0
CLASS
  1
ACME_DATABASE
  2
AcMeDbDatabase
  3
AcMeServices
 90
        0
 91
        0
280
     0
281
     0
  0
CLASS
  1
ACRFINSADJUSTERMGR
  2
AcRfInsAdjusterMgr
  3
AcMeServices
 90
        0
 91
        0
280
     0
281
     0
  0
CLASS
  1
ACGREFACADMASTER
  2
AcGrefacadMaster
  3
AcGrefServices
 90
        0
 91
        0
280
     0
281
     0
  0
CLASS
  1
AMIMASTER
  2
AmiMaster
  3
AmiServices
 90
        0
 91
        0
280
     0
281
     0
  0
CLASS
  1
ACMDATADICTIONARY
  2
AcmDataDictionary
  3
"AcmSymBB|Product Description: AutoCAD Mechanical 2004 DX|Company: Autodesk"
 90
        0
 91
        0
280
     0
281
     0
  0
CLASS
  1
ACMDATAENTRYBLOCK
  2
AcmDataEntryBlock
  3
"AcmSymBB|Product Description: AutoCAD Mechanical 2004 DX|Company: Autodesk"
 90
        0
 91
        0
280
     0
281
     0
  0
CLASS
  1
ACIMSTRSYSVAR
  2
AcImStrSysVar
  3
AcMeServices
 90
        0
 91
        1
280
     0
281
     0
  0
CLASS
  1
ACMSTANDARDANSI
  2
AcmStandardANSI
  3
"Amdt_StdImp|Product Description: AutoCAD Mechanical 2004 DX|Company: Autodesk"
 90
        0
 91
        1
280
     0
281
     0
  0
CLASS
  1
AMGOBJPROPCFG
  2
AmgObjPropCfg
  3
"AmgLay|Product Description: AutoCAD Mechanical 2000|Company: Autodesk"
 90
        1
 91
        1
280
     0
281
     0
  0
CLASS
  1
ACMSURFSTANDARDANSI
  2
AcmSurfTextStdANSI
  3
"Amdt_StdImp|Product Description: AutoCAD Mechanical 2004 DX|Company: Autodesk"
 90
        0
 91
        1
280
     0
281
     0
  0
CLASS
  1
ACMFCFSTANDARDANSI
  2
AcmFCFStdANSI
  3
"Amdt_StdImp|Product Description: AutoCAD Mechanical 2004 DX|Company: Autodesk"
 90
        0
 91
        1
280
     0
281
     0
  0
CLASS
  1
ACMWELDSTANDARDANSI
  2
AcmWeldingStdANSI
  3
"Amdt_StdImp|Product Description: AutoCAD Mechanical 2004 DX|Company: Autodesk"
 90
        0
 91
        1
280
     0
281
     0
  0
CLASS
  1
ACMIDSTANDARDANSI
  2
AcmIdStdANSI
  3
"Amdt_StdImp|Product Description: AutoCAD Mechanical 2004 DX|Company: Autodesk"
 90
        0
 91
        1
280
     0
281
     0
  0
CLASS
  1
ACMDATUMSTANDARDANSI
  2
AcmDatumStdANSI
  3
"Amdt_StdImp|Product Description: AutoCAD Mechanical 2004 DX|Company: Autodesk"
 90
        0
 91
        1
280
     0
281
     0
  0
CLASS
  1
ACMBOMSTANDARDANSI
  2
AcmBOMStdANSI
  3
"Amdt_StdImp|Product Description: AutoCAD Mechanical 2004 DX|Company: Autodesk"
 90
        0
 91
        1
280
     0
281
     0
  0
CLASS
  1
ACMDETAILSTANDARDANSI
  2
AmdtDetailSymStdANSI
  3
"Amdt_StdImp|Product Description: AutoCAD Mechanical 2004 DX|Company: Autodesk"
 90
        0
 91
        1
280
     0
281
     0
  0
CLASS
  1
ACMSECTIONSTANDARDANSI
  2
AmdtSectionSymStdANSI
  3
"Amdt_StdImp|Product Description: AutoCAD Mechanical 2004 DX|Company: Autodesk"
 90
        0
 91
        1
280
     0
281
     0
  0
CLASS
  1
ACMCENTERLINESTANDARDANSI
  2
AmdtCenterLineStdANSI
  3
"Amdt_StdImp|Product Description: AutoCAD Mechanical 2004 DX|Company: Autodesk"
 90
        0
 91
        1
280
     0
281
     0
  0
CLASS
  1
ACMNOTESTANDARDANSI
  2
AmdtNoteStdANSI
  3
"Amdt_StdImp|Product Description: AutoCAD Mechanical 2004 DX|Company: Autodesk"
 90
        0
 91
        1
280
     0
281
     0
  0
CLASS
  1
ACAMGLAYSTD
  2
AcAmgLayStd
  3
"AcAmgLayStd|Product Description: AutoCAD Mechanical 2000|Company: Autodesk"
 90
        0
 91
        1
280
     0
281
     0
  0
CLASS
  1
ACAMGDIMSTD
  2
AcAmgDimStd
  3
"AcAmgDimStd|Product Description: AutoCAD Mechanical 2000|Company: Autodesk"
 90
        0
 91
        1
280
     0
281
     0
  0
CLASS
  1
ACAMGHOLECHARTSTDANSI
  2
AcAmgHoleChartStdANSI
  3
ACMSYMBB_MODULE_NAME
 90
        0
 91
        1
280
     0
281
     0
  0
CLASS
  1
ACAMGTITLESTD
  2
AcAmgTitleStd
  3
"TITLEAPP"
 90
        0
 91
        1
280
     0
281
     0
  0
CLASS
  1
LAYER_INDEX
  2
AcDbLayerIndex
  3
ObjectDBX Classes
 90
        0
 91
        0
280
     0
281
     0
  0
CLASS
  1
IDBUFFER
  2
AcDbIdBuffer
  3
ObjectDBX Classes
 90
        0
 91
        0
280
     0
281
     0
  0
CLASS
  1
DICTIONARYVAR
  2
AcDbDictionaryVar
  3
ObjectDBX Classes
 90
        0
 91
        1
280
     0
281
     0
  0
CLASS
  1
AM_DRAWING_MGR
  2
AcDmDwgMgr
  3
AcMechDwgViewMgmt
 90
        0
 91
        1
280
     0
281
     0
  0
CLASS
  1
AM_DWG_DOCUMENT
  2
AcDmDwgDocument
  3
AcMechDwgViewMgmt
 90
        0
 91
        1
280
     0
281
     0
  0
CLASS
  1
AM_DWG_SHEET
  2
AcDmSheet
  3
AcMechDwgViewMgmt
 90
        0
 91
        1
280
     0
281
     0
  0
CLASS
  1
AM_VIEWDIMPARMAP
  2
AcDmViewDimParMap
  3
AcMechDwgViewMgmt
 90
        0
 91
        1
280
     0
281
     0
  0
CLASS
  1
AM_DWGMGR_NAME
  2
AcDmDwgMgrName
  3
AcMechDwgViewMgmt
 90
        0
 91
        1
280
     0
281
     0
  0
CLASS
  1
AMDTMENUSTATEMGR
  2
AmdtMenuStateMgr
  3
McadcomServices
 90
        0
 91
        0
280
     0
281
     0
  0
CLASS
  1
AMDTMCOMMENUSTATE
  2
AmdtMcomMenuState
  3
McadcomServices
 90
        0
 91
        0
280
     0
281
     0
  0
CLASS
  1
MAPIAMMOUDLE
  2
MApiAmModule
  3
MApiAmServices
 90
        0
 91
        0
280
     0
281
     0
  0
CLASS
  1
AMDTADMENUSTATE
  2
AmdtAdMenuState
  3
DesignerServices
 90
        0
 91
        0
280
     0
281
     0
  0
CLASS
  1
ADAPPL
  2
AcAdAppl
  3
DesignerServices
 90
        0
 91
        1
280
     0
281
     0
  0
CLASS
  1
DEPMGR
  2
AcAdDepMgr
  3
DesignerServices
 90
        0
 91
        1
280
     0
281
     0
  0
CLASS
  1
PARAMMGR
  2
AcAdParamMgr
  3
DesignerServices
 90
        0
 91
        1
280
     0
281
     0
  0
CLASS
  1
PARAMSCOPE
  2
AcAdParamScope
  3
DesignerServices
 90
        0
 91
        1
280
     0
281
     0
  0
CLASS
  1
NAMEDAPPL
  2
AcAdNamedAppl
  3
DesignerServices
 90
        0
 91
        1
280
     0
281
     0
  0
CLASS
  1
AMDTDMMENUSTATE
  2
AmdtDmMenuState
  3
AcMechDwgViewMgmt
 90
        0
 91
        0
280
     0
281
     0
  0
CLASS
  1
AMDTAMMENUSTATE
  2
AmdtAmMenuState
  3
DesignerAssemblies
 90
        0
 91
        0
280
     0
281
     0
  0
CLASS
  1
ACAMPROJECT
  2
AcAmProject
  3
DesignerAssemblies
 90
        0
 91
        0
280
     0
281
     0
  0
CLASS
  1
ACAMGRCOMPDEF
  2
AcAmGrCompDef
  3
DesignerAssemblies
 90
        0
 91
        0
280
     0
281
     0
  0
CLASS
  1
ACCMCONTEXT
  2
AcCmContext
  3
DesignerAssemblies
 90
        0
 91
        0
280
     0
281
     0
  0
CLASS
  1
ACAMCOMPDEF
  2
AcAmCompDef
  3
DesignerAssemblies
 90
        0
 91
        0
280
     0
281
     0
  0
CLASS
  1
ACAMCOMPDEFMGR
  2
AcAmCompDefMgr
  3
DesignerAssemblies
 90
        0
 91
        0
280
     0
281
     0
  0
CLASS
  1
AMCONTEXTMGR
  2
AcAmContextMgr
  3
DesignerAssemblies
 90
        0
 91
        0
280
     0
281
     0
  0
CLASS
  1
ACAMCONTEXTMODELER
  2
AcAmContextModeler
  3
DesignerAssemblies
 90
        0
 91
        0
280
     0
281
     0
  0
CLASS
  1
ACMTHREADLINESTANDARDANSI
  2
AmdtThreadLineStdANSI
  3
"Amdt_StdImp|Product Description: AutoCAD Mechanical 2004 DX|Company: Autodesk"
 90
        0
 91
        1
280
     0
281
     0
  0
CLASS
  1
CATALOGSTATE
  2
AcAmCatalogState
  3
DesignerAssemblies
 90
        0
 91
        0
280
     0
281
     0
  0
CLASS
  1
ACAMGRCOMPDEFSET
  2
AcAmGrCompDefSet
  3
DesignerAssemblies
 90
        0
 91
        0
280
     0
281
     0
  0
CLASS
  1
AMDTBROWSERDBTAB
  2
AmdtBrowserDbTab
  3
McadcomServices
 90
        0
 91
        0
280
     0
281
     0
  0
CLASS
  1
CBROWSERAPPOBJECT
  2
CBrowserAppObject
  3
McadcomServices
 90
        0
 91
        0
280
     0
281
     0
  0
CLASS
  1
DM_PLACEHOLDER
  2
AcDmSelsetPlaceholder
  3
AcMechDwgViewMgmt
 90
        0
 91
        0
280
     0
281
     0
  0
CLASS
  1
TABLESTYLE
  2
AcDbTableStyle
  3
ObjectDBX Classes
 90
     2047
 91
        1
280
     0
281
     0
  0
CLASS
  1
AMDTNOTETEMPLATEDB
  2
AmdtNoteTemplateDB
  3
AMDT_STDIMP_MODULE_NAME
 90
        0
 91
        6
280
     0
281
     0
  0
CLASS
  1
ACAMGFILTERDAT
  2
AcAmgFilterDat
  3
"AcadM|Product Description: AutoCAD Mechanical 2000|Company: Autodesk"
 90
        0
 91
        0
280
     0
281
     0
  0
CLASS
  1
SORTENTSTABLE
  2
AcDbSortentsTable
  3
ObjectDBX Classes
 90
        0
 91
        2
280
     0
281
     0
  0
ENDSEC
  0
SECTION
  2
TABLES
  0
TABLE
  2
VPORT
  5
20
330
0
100
AcDbSymbolTable
 70
     1
  0
VPORT
  5
21
330
20
100
AcDbSymbolTableRecord
100
AcDbViewportTableRecord
  2
*Active
 70
     0
 10
0.0
 20
0.0
 11
1.0
 21
1.0
 12
68.92939768783809
 22
23.04047940861088
 13
0.0
 23
0.0
 14
0.125
 24
0.125
 15
1.0
 25
1.0
 16
0.0
 26
0.0
 36
1.0
 17
0.0
 27
0.0
 37
0.0
 40
135.0857038744746
 41
1.339267015706806
 42
50.0
 43
0.0
 44
0.0
 50
0.0
 51
0.0
 71
     0
 72
   100
 73
     1
 74
     3
 75
     0
 76
     0
 77
     0
 78
     0
281
     0
 65
     1
110
0.0
120
0.0
130
0.0
111
1.0
121
0.0
131
0.0
112
0.0
122
1.0
132
0.0
 79
     0
146
0.0
  0
ENDTAB
  0
TABLE
  2
LTYPE
  5
1B
330
0
100
AcDbSymbolTable
 70
    10
  0
LTYPE
  5
1C
330
1B
100
AcDbSymbolTableRecord
100
AcDbLinetypeTableRecord
  2
ByBlock
 70
     0
  3

 72
    65
 73
     0
 40
0.0
  0
LTYPE
  5
1D
330
1B
100
AcDbSymbolTableRecord
100
AcDbLinetypeTableRecord
  2
ByLayer
 70
     0
  3

 72
    65
 73
     0
 40
0.0
  0
LTYPE
  5
A
330
1B
100
AcDbSymbolTableRecord
100
AcDbLinetypeTableRecord
  2
Continuous
 70
     0
  3
Solid line
 72
    65
 73
     0
 40
0.0
  0
LTYPE
  5
13C
330
1B
100
AcDbSymbolTableRecord
100
AcDbLinetypeTableRecord
  2
Amconstr
 70
     0
  3
_______________________
 72
    65
 73
     2
 40
9999.0
 49
9999.0
 74
     0
 49
0.0
 74
     0
  0
LTYPE
  5
139
330
1B
100
AcDbSymbolTableRecord
100
AcDbLinetypeTableRecord
  2
HIDDEN
 70
     0
  3
Hidden __ __ __ __ __ __ __ __ __ __ __ __ __ _
 72
    65
 73
     2
 40
0.375
 49
0.25
 74
     0
 49
-0.125
 74
     0
  0
LTYPE
  5
13A
330
1B
100
AcDbSymbolTableRecord
100
AcDbLinetypeTableRecord
  2
CENTER
 70
     0
  3
Center ____ _ ____ _ ____ _ ____ _ ____ _ ____
 72
    65
 73
     4
 40
2.0
 49
1.25
 74
     0
 49
-0.25
 74
     0
 49
0.25
 74
     0
 49
-0.25
 74
     0
  0
LTYPE
  5
13B
330
1B
100
AcDbSymbolTableRecord
100
AcDbLinetypeTableRecord
  2
PHANTOM2
 70
     0
  3
Phantom (.5x) ___ _ _ ___ _ _ ___ _ _ ___ _ _
 72
    65
 73
     6
 40
1.25
 49
0.625
 74
     0
 49
-0.125
 74
     0
 49
0.125
 74
     0
 49
-0.125
 74
     0
 49
0.125
 74
     0
 49
-0.125
 74
     0
  0
LTYPE
  5
13D
330
1B
100
AcDbSymbolTableRecord
100
AcDbLinetypeTableRecord
  2
CENTER2
 70
     0
  3
Center (.5x) ___ _ ___ _ ___ _ ___ _ ___ _ ___
 72
    65
 73
     4
 40
1.125
 49
0.75
 74
     0
 49
-0.125
 74
     0
 49
0.125
 74
     0
 49
-0.125
 74
     0
  0
LTYPE
  5
13E
330
1B
100
AcDbSymbolTableRecord
100
AcDbLinetypeTableRecord
  2
HIDDEN2
 70
     0
  3
Hidden (.5x) _ _ _ _ _ _ _ _ _ _ _ _ _ _ _ _ _
 72
    65
 73
     2
 40
0.1875
 49
0.125
 74
     0
 49
-0.0625
 74
     0
  0
LTYPE
  5
13F
330
1B
100
AcDbSymbolTableRecord
100
AcDbLinetypeTableRecord
  2
Amzigzag2
 70
     0
  3
/\/-/\/-/\/-/\/-/\/-/\/
 72
    65
 73
     2
 40
0.4401
 49
0.0001
 74
     4
 75
   136
340
140
 46
0.0016
 50
0.0
 44
0.0
 45
0.0
 49
-0.4400000000000001
 74
     0
  0
LTYPE
  5
153
330
1B
100
AcDbSymbolTableRecord
100
AcDbLinetypeTableRecord
  2
ACANSTGB
 70
     0
  3
__ . . __ . .
 72
    65
 73
     6
 40
0.35433070866
 49
0.15748031496
 74
     0
 49
-0.03937007874
 74
     0
 49
0.03937007874
 74
     0
 49
-0.03937007874
 74
     0
 49
0.03937007874
 74
     0
 49
-0.03937007874
 74
     0
  0
LTYPE
  5
154
330
1B
100
AcDbSymbolTableRecord
100
AcDbLinetypeTableRecord
  2
ACANSTGL
 70
     0
  3
_ _ _ _ _
 72
    65
 73
     2
 40
0.11811023622
 49
0.07874015748
 74
     0
 49
-0.03937007874
 74
     0
  0
ENDTAB
  0
TABLE
  2
LAYER
  5
13
102
{ACAD_XDICTIONARY
360
14
102
}
330
0
100
AcDbSymbolTable
 70
     2
  0
LAYER
  5
6
330
13
100
AcDbSymbolTableRecord
100
AcDbLayerTableRecord
  2
0
 70
     0
 62
    -7
  6
Continuous
370
    -3
390
7
  0
LAYER
  5
2E
330
13
100
AcDbSymbolTableRecord
100
AcDbLayerTableRecord
  2
lip
 70
     0
 62
     7
  6
Continuous
370
    -3
390
7
1001
AcAecLayerStandard
1000

1000

  0
ENDTAB
  0
TABLE
  2
STYLE
  5
18
330
0
100
AcDbSymbolTable
 70
     4
  0
STYLE
  5
19
330
18
100
AcDbSymbolTableRecord
100
AcDbTextStyleTableRecord
  2
STANDARD
 70
     0
 40
0.0
 41
1.0
 50
0.0
 71
     0
 42
2.444086416260688
  3
ROMANS.SHX
  4

  0
STYLE
  5
14C
330
18
100
AcDbSymbolTableRecord
100
AcDbTextStyleTableRecord
  2
ACANSTS
 70
     0
 40
1.0
 41
1.0
 50
0.0
 71
     0
 42
0.2
  3
romans.shx
  4

  0
STYLE
  5
14F
330
18
100
AcDbSymbolTableRecord
100
AcDbTextStyleTableRecord
  2
ACANSGDT
 70
     0
 40
0.0
 41
1.0
 50
0.0
 71
     0
 42
0.2
  3
AMGDT
  4

  0
STYLE
  5
140
330
18
100
AcDbSymbolTableRecord
100
AcDbTextStyleTableRecord
  2

 70
     1
 40
0.0
 41
1.0
 50
0.0
 71
     0
 42
0.2
  3
genltshp.shx
  4

  0
ENDTAB
  0
TABLE
  2
VIEW
  5
1E
330
0
100
AcDbSymbolTable
 70
     0
  0
ENDTAB
  0
TABLE
  2
UCS
  5
1F
330
0
100
AcDbSymbolTable
 70
     0
  0
ENDTAB
  0
TABLE
  2
APPID
  5
22
330
0
100
AcDbSymbolTable
 70
     7
  0
APPID
  5
17
330
22
100
AcDbSymbolTableRecord
100
AcDbRegAppTableRecord
  2
ACAD
 70
     0
  0
APPID
  5
25
330
22
100
AcDbSymbolTableRecord
100
AcDbRegAppTableRecord
  2
ACAD_DSTYLE_DIMARC_LENGTH_SYMBOL
 70
     0
  0
APPID
  5
26
330
22
100
AcDbSymbolTableRecord
100
AcDbRegAppTableRecord
  2
ACAD_DSTYLE_DIMJOGGED_JOGANGLE_SYMBOL
 70
     0
  0
APPID
  5
E
330
22
100
AcDbSymbolTableRecord
100
AcDbRegAppTableRecord
  2
ACAD_PSEXT
 70
     0
  0
APPID
  5
2F
330
22
100
AcDbSymbolTableRecord
100
AcDbRegAppTableRecord
  2
AcAecLayerStandard
 70
     0
  0
APPID
  5
5E
330
22
100
AcDbSymbolTableRecord
100
AcDbRegAppTableRecord
  2
GENIUS_GENODEF_13
 70
     0
  0
APPID
  5
5F
330
22
100
AcDbSymbolTableRecord
100
AcDbRegAppTableRecord
  2
GENIUS_GENOBJ-N-FIL_13
 70
     0
  0
ENDTAB
  0
TABLE
  2
DIMSTYLE
  5
23
330
0
100
AcDbSymbolTable
 70
     6
100
AcDbDimStyleTable
 71
     1
340
24
  0
DIMSTYLE
105
24
330
23
100
AcDbSymbolTableRecord
100
AcDbDimStyleTableRecord
  2
AM_ANSI
 70
     0
  4
mm
 41
0.1
 42
0.05
 43
0.5
 44
0.1
 47
0.1
 48
0.1
 78
     7
 79
     2
140
0.12
141
0.0
146
0.71
147
0.06
176
   256
177
   256
178
     2
274
     4
284
     7
340
19
371
    -1
372
    -1
1001
ACAD_DSTYLE_DIMARC_LENGTH_SYMBOL
1070
   379
1070
     1
1001
ACAD_DSTYLE_DIMJOGGED_JOGANGLE_SYMBOL
1070
   384
1040
0.7853981633974483
  0
DIMSTYLE
105
162
330
23
100
AcDbSymbolTableRecord
100
AcDbDimStyleTableRecord
  2
AM_ANSI$3
 70
     0
  4
mm
 41
0.1
 42
0.05
 43
0.5
 44
0.1
 47
0.1
 48
0.1
 78
     7
 79
     2
140
0.12
141
0.0
146
0.71
147
0.06
176
   256
177
   256
178
     2
274
     4
284
     7
288
     1
289
     0
340
19
371
    -1
372
    -1
1001
ACAD_DSTYLE_DIMARC_LENGTH_SYMBOL
1070
   379
1070
     1
1001
ACAD_DSTYLE_DIMJOGGED_JOGANGLE_SYMBOL
1070
   384
1040
0.7853981633974483
  0
DIMSTYLE
105
163
330
23
100
AcDbSymbolTableRecord
100
AcDbDimStyleTableRecord
  2
AM_ANSI$4
 70
     0
  4
mm
 41
0.1
 42
0.05
 43
0.5
 44
0.1
 47
0.1
 48
0.1
 78
     7
 79
     2
140
0.12
141
0.0
146
0.71
147
0.06
176
   256
177
   256
178
     2
274
     4
284
     7
288
     1
289
     0
340
19
371
    -1
372
    -1
1001
ACAD_DSTYLE_DIMARC_LENGTH_SYMBOL
1070
   379
1070
     1
1001
ACAD_DSTYLE_DIMJOGGED_JOGANGLE_SYMBOL
1070
   384
1040
0.7853981633974483
  0
DIMSTYLE
105
164
330
23
100
AcDbSymbolTableRecord
100
AcDbDimStyleTableRecord
  2
AM_ANSI$7
 70
     0
  4
mm
 41
0.1
 42
0.05
 43
0.5
 44
0.1
 47
0.1
 48
0.1
 78
     7
 79
     2
140
0.24
141
0.0
146
0.71
147
0.06
176
   256
177
   256
178
     2
274
     4
284
     7
340
19
371
    -1
372
    -1
1001
ACAD_DSTYLE_DIMARC_LENGTH_SYMBOL
1070
   379
1070
     1
1001
ACAD_DSTYLE_DIMJOGGED_JOGANGLE_SYMBOL
1070
   384
1040
0.7853981633974483
  0
DIMSTYLE
105
165
330
23
100
AcDbSymbolTableRecord
100
AcDbDimStyleTableRecord
  2
AM_ANSI$SF
 70
     0
  4
mm
 41
0.1
 42
0.05
 43
0.5
 44
0.1
 47
0.1
 48
0.1
 75
     1
 76
     1
 78
     7
 79
     2
140
0.12
141
0.0
146
0.71
147
0.06
176
   256
177
   256
178
     2
274
     4
284
     7
340
19
371
    -1
372
    -1
1001
ACAD_DSTYLE_DIMARC_LENGTH_SYMBOL
1070
   379
1070
     1
1001
ACAD_DSTYLE_DIMJOGGED_JOGANGLE_SYMBOL
1070
   384
1040
0.7853981633974483
  0
DIMSTYLE
105
166
330
23
100
AcDbSymbolTableRecord
100
AcDbDimStyleTableRecord
  2
AM_ANSI$SH
 70
     0
  4
mm
 41
0.1
 42
0.05
 43
0.5
 44
0.1
 47
0.1
 48
0.1
 75
     1
 76
     1
 78
     7
 79
     2
140
0.12
141
0.0
146
0.71
147
0.06
173
     1
176
   256
177
   256
178
     2
274
     4
284
     7
340
19
343
167
371
    -1
372
    -1
1001
ACAD_DSTYLE_DIMARC_LENGTH_SYMBOL
1070
   379
1070
     1
1001
ACAD_DSTYLE_DIMJOGGED_JOGANGLE_SYMBOL
1070
   384
1040
0.7853981633974483
  0
ENDTAB
  0
TABLE
  2
BLOCK_RECORD
  5
1
330
0
100
AcDbSymbolTable
 70
     1
  0
BLOCK_RECORD
  5
2
102
{ACAD_XDICTIONARY
360
3
102
}
330
1
100
AcDbSymbolTableRecord
100
AcDbBlockTableRecord
  2
*Model_Space
340
C
  0
BLOCK_RECORD
  5
F
330
1
100
AcDbSymbolTableRecord
100
AcDbBlockTableRecord
  2
*Paper_Space
340
12
  0
BLOCK_RECORD
  5
167
330
1
100
AcDbSymbolTableRecord
100
AcDbBlockTableRecord
  2
GENAXEH
340
0
  0
ENDTAB
  0
ENDSEC
  0
SECTION
  2
BLOCKS
  0
BLOCK
  5
5
330
2
100
AcDbEntity
  8
0
100
AcDbBlockBegin
  2
*Model_Space
 70
     0
 10
0.0
 20
0.0
 30
0.0
  3
*Model_Space
  1

  0
ENDBLK
  5
B
330
2
100
AcDbEntity
  8
0
100
AcDbBlockEnd
  0
BLOCK
  5
10
330
F
100
AcDbEntity
 67
     1
  8
0
100
AcDbBlockBegin
  2
*Paper_Space
 70
     0
 10
0.0
 20
0.0
 30
0.0
  3
*Paper_Space
  1

  0
ENDBLK
  5
11
330
F
100
AcDbEntity
 67
     1
  8
0
100
AcDbBlockEnd
  0
BLOCK
  5
168
330
167
100
AcDbEntity
  8
0
100
AcDbBlockBegin
  2
GENAXEH
 70
     0
 10
0.0
 20
0.0
 30
0.0
  3
GENAXEH
  1

  0
LINE
  5
169
330
167
100
AcDbEntity
  8
0
100
AcDbLine
 10
-1.0
 20
0.0
 30
0.0
 11
1.0
 21
0.0
 31
0.0
  0
ENDBLK
  5
16A
330
167
100
AcDbEntity
  8
0
100
AcDbBlockEnd
  0
ENDSEC
  0
SECTION
  2
ENTITIES
  0
TEXT
  5
32
330
2
100
AcDbEntity
  8
lip
 62
     1
100
AcDbText
 10
31.3779085374621
 20
4.403894231574058
 30
0.0
 40
2.444086416260688
  1
QTY: 3
100
AcDbText
  0
TEXT
  5
33
330
2
100
AcDbEntity
  8
lip
 62
     1
100
AcDbText
 10
31.3779085374621
 20
8.027795018760572
 30
0.0
 40
2.444086416260688
  1
10GA 5052 AL
100
AcDbText
  0
ARC
  5
34
330
2
100
AcDbEntity
  8
lip
100
AcDbCircle
 10
81.25521573890642
 20
9.341327839423881
 30
0.0
 40
0.4999999999999988
100
AcDbArc
 50
270.0
 51
2.024051193488817
  0
LINE
  5
35
330
2
100
AcDbEntity
  8
lip
100
AcDbLine
 10
81.25521573890642
 20
8.841327839423883
 30
0.0
 11
75.61998823763002
 21
8.841327839423883
 31
0.0
  0
LINE
  5
36
330
2
100
AcDbEntity
  8
lip
100
AcDbLine
 10
72.01570871655349
 20
13.84056265614935
 30
0.0
 11
71.87820930773205
 21
13.84132783942388
 31
0.0
  0
LINE
  5
37
330
2
100
AcDbEntity
  8
lip
100
AcDbLine
 10
72.17062119261729
 20
13.82391619093203
 30
0.0
 11
72.01570871655349
 21
13.84056265614935
 31
0.0
  0
LINE
  5
38
330
2
100
AcDbEntity
  8
lip
100
AcDbLine
 10
72.33768718785768
 20
13.79370354650739
 30
0.0
 11
72.17062119261729
 21
13.82391619093203
 31
0.0
  0
LINE
  5
39
330
2
100
AcDbEntity
  8
lip
100
AcDbLine
 10
72.51164715420888
 20
13.75223982561091
 30
0.0
 11
72.33768718785768
 21
13.79370354650739
 31
0.0
  0
LINE
  5
3A
330
2
100
AcDbEntity
  8
lip
100
AcDbLine
 10
72.68724154360512
 20
13.70184013097806
 30
0.0
 11
72.51164715420888
 21
13.75223982561091
 31
0.0
  0
LINE
  5
3B
330
2
100
AcDbEntity
  8
lip
100
AcDbLine
 10
72.85921080798066
 20
13.64481956534431
 30
0.0
 11
72.68724154360512
 21
13.70184013097806
 31
0.0
  0
LINE
  5
3C
330
2
100
AcDbEntity
  8
lip
100
AcDbLine
 10
73.02229539926971
 20
13.58349323144512
 30
0.0
 11
72.85921080798066
 21
13.64481956534431
 31
0.0
  0
LINE
  5
3D
330
2
100
AcDbEntity
  8
lip
100
AcDbLine
 10
73.17123576940651
 20
13.52017623201599
 30
0.0
 11
73.02229539926971
 21
13.58349323144512
 31
0.0
  0
LINE
  5
3E
330
2
100
AcDbEntity
  8
lip
100
AcDbLine
 10
73.30209258452341
 20
13.45677331881861
 30
0.0
 11
73.17123576940651
 21
13.52017623201599
 31
0.0
  0
LINE
  5
3F
330
2
100
AcDbEntity
  8
lip
100
AcDbLine
 10
73.4162073675452
 20
13.3935478397196
 30
0.0
 11
73.30209258452341
 21
13.45677331881861
 31
0.0
  0
LINE
  5
40
330
2
100
AcDbEntity
  8
lip
100
AcDbLine
 10
73.51624185559481
 20
13.33035279161183
 30
0.0
 11
73.4162073675452
 21
13.3935478397196
 31
0.0
  0
LINE
  5
41
330
2
100
AcDbEntity
  8
lip
100
AcDbLine
 10
73.60485778579519
 20
13.26704117138815
 30
0.0
 11
73.51624185559481
 21
13.33035279161183
 31
0.0
  0
LINE
  5
42
330
2
100
AcDbEntity
  8
lip
100
AcDbLine
 10
73.68471689526924
 20
13.20346597594143
 30
0.0
 11
73.60485778579519
 21
13.26704117138815
 31
0.0
  0
LINE
  5
43
330
2
100
AcDbEntity
  8
lip
100
AcDbLine
 10
73.75848092113989
 20
13.13948020216451
 30
0.0
 11
73.68471689526924
 21
13.20346597594143
 31
0.0
  0
LINE
  5
44
330
2
100
AcDbEntity
  8
lip
100
AcDbLine
 10
73.82881160053006
 20
13.07493684695027
 30
0.0
 11
73.75848092113989
 21
13.13948020216451
 31
0.0
  0
LINE
  5
45
330
2
100
AcDbEntity
  8
lip
100
AcDbLine
 10
73.89837067056268
 20
13.00968890719156
 30
0.0
 11
73.82881160053006
 21
13.07493684695027
 31
0.0
  0
LINE
  5
46
330
2
100
AcDbEntity
  8
lip
100
AcDbLine
 10
73.96925811252152
 20
12.94332574492126
 30
0.0
 11
73.89837067056268
 21
13.00968890719156
 31
0.0
  0
LINE
  5
47
330
2
100
AcDbEntity
  8
lip
100
AcDbLine
 10
74.0413268843337
 20
12.87438218273233
 30
0.0
 11
73.96925811252152
 21
12.94332574492126
 31
0.0
  0
LINE
  5
48
330
2
100
AcDbEntity
  8
lip
100
AcDbLine
 10
74.11386818808724
 20
12.80112940835778
 30
0.0
 11
74.0413268843337
 21
12.87438218273233
 31
0.0
  0
LINE
  5
49
330
2
100
AcDbEntity
  8
lip
100
AcDbLine
 10
74.1861732258701
 20
12.72183860953059
 30
0.0
 11
74.11386818808724
 21
12.80112940835778
 31
0.0
  0
LINE
  5
4A
330
2
100
AcDbEntity
  8
lip
100
AcDbLine
 10
74.25753319977028
 20
12.63478097398375
 30
0.0
 11
74.1861732258701
 21
12.72183860953059
 31
0.0
  0
LINE
  5
4B
330
2
100
AcDbEntity
  8
lip
100
AcDbLine
 10
74.32723931187576
 20
12.53822768945024
 30
0.0
 11
74.25753319977028
 21
12.63478097398375
 31
0.0
  0
LINE
  5
4C
330
2
100
AcDbEntity
  8
lip
100
AcDbLine
 10
74.39458276427451
 20
12.43044994366307
 30
0.0
 11
74.32723931187576
 21
12.53822768945024
 31
0.0
  0
LINE
  5
4D
330
2
100
AcDbEntity
  8
lip
100
AcDbLine
 10
74.45885475905455
 20
12.30971892435523
 30
0.0
 11
74.39458276427451
 21
12.43044994366307
 31
0.0
  0
LINE
  5
4E
330
2
100
AcDbEntity
  8
lip
100
AcDbLine
 10
74.51954207417035
 20
12.17495443604701
 30
0.0
 11
74.45885475905455
 21
12.30971892435523
 31
0.0
  0
LINE
  5
4F
330
2
100
AcDbEntity
  8
lip
100
AcDbLine
 10
74.57691379104241
 20
12.02767075040795
 30
0.0
 11
74.51954207417035
 21
12.17495443604701
 31
0.0
  0
LINE
  5
50
330
2
100
AcDbEntity
  8
lip
100
AcDbLine
 10
74.63143456695778
 20
11.87003075589489
 30
0.0
 11
74.57691379104241
 21
12.02767075040795
 31
0.0
  0
LINE
  5
51
330
2
100
AcDbEntity
  8
lip
100
AcDbLine
 10
74.68356905920342
 20
11.70419734096467
 30
0.0
 11
74.63143456695778
 21
11.87003075589489
 31
0.0
  0
LINE
  5
52
330
2
100
AcDbEntity
  8
lip
100
AcDbLine
 10
74.7337819250664
 20
11.53233339407414
 30
0.0
 11
74.68356905920342
 21
11.70419734096467
 31
0.0
  0
LINE
  5
53
330
2
100
AcDbEntity
  8
lip
100
AcDbLine
 10
74.7825378218337
 20
11.35660180368014
 30
0.0
 11
74.7337819250664
 21
11.53233339407414
 31
0.0
  0
LINE
  5
54
330
2
100
AcDbEntity
  8
lip
100
AcDbLine
 10
74.83030140679234
 20
11.17916545823951
 30
0.0
 11
74.7825378218337
 21
11.35660180368014
 31
0.0
  0
LINE
  5
55
330
2
100
AcDbEntity
  8
lip
100
AcDbLine
 10
74.87753733722934
 20
11.00218724620911
 30
0.0
 11
74.83030140679234
 21
11.17916545823951
 31
0.0
  0
LINE
  5
56
330
2
100
AcDbEntity
  8
lip
100
AcDbLine
 10
74.92496461942896
 20
10.82583577259238
 30
0.0
 11
74.87753733722934
 21
11.00218724620911
 31
0.0
  0
LINE
  5
57
330
2
100
AcDbEntity
  8
lip
100
AcDbLine
 10
74.97431965566438
 20
10.64230250857927
 30
0.0
 11
74.92496461942896
 21
10.82583577259238
 31
0.0
  0
LINE
  5
58
330
2
100
AcDbEntity
  8
lip
100
AcDbLine
 10
75.02759319720607
 20
10.44178464190634
 30
0.0
 11
74.97431965566438
 21
10.64230250857927
 31
0.0
  0
LINE
  5
59
330
2
100
AcDbEntity
  8
lip
100
AcDbLine
 10
75.08677599532449
 20
10.21447936031014
 30
0.0
 11
75.02759319720607
 21
10.44178464190634
 31
0.0
  0
LINE
  5
5A
330
2
100
AcDbEntity
  8
lip
100
AcDbLine
 10
75.15385880129006
 20
9.950583851527243
 30
0.0
 11
75.08677599532449
 21
10.21447936031014
 31
0.0
  0
LINE
  5
5B
330
2
100
AcDbEntity
  8
lip
100
AcDbLine
 10
75.23083236637323
 20
9.640295303294193
 30
0.0
 11
75.15385880129006
 21
9.950583851527243
 31
0.0
  0
LINE
  5
5C
330
2
100
AcDbEntity
  8
lip
100
AcDbLine
 10
75.31968744184448
 20
9.273810903347554
 30
0.0
 11
75.23083236637323
 21
9.640295303294193
 31
0.0
  0
ARC
  5
5D
330
2
100
AcDbEntity
  8
lip
100
AcDbCircle
 10
75.61998823763002
 20
9.091327839423883
 30
0.0
 40
0.2500000000000001
100
AcDbArc
 50
193.3617997502927
 51
270.0
1001
GENIUS_GENODEF_13
1002
{
1000
HIER
1070
     0
1002
}
1002
{
1000
MANEDIT
1070
     0
1002
}
1002
{
1000
NOSEL
1070
     0
1002
}
1002
{
1000
BEHIND
1070
     0
1002
}
1002
{
1000
OTHER
1070
     0
1002
}
1002
{
1000
REACTOR
1002
}
1001
GENIUS_GENOBJ-N-FIL_13
1002
{
1000
OWNER
1000
GEN
1002
}
  0
LINE
  5
60
330
2
100
AcDbEntity
  8
lip
100
AcDbLine
 10
75.37675569438407
 20
9.033553018730877
 30
0.0
 11
75.31968744184448
 21
9.273810903347554
 31
0.0
  0
POLYLINE
  5
61
330
2
100
AcDbEntity
  8
lip
100
AcDb2dPolyline
 66
     1
 10
0.0
 20
0.0
 30
0.0
  0
VERTEX
  5
62
330
61
100
AcDbEntity
  8
lip
100
AcDbVertex
100
AcDb2dVertex
 10
81.75490378346603
 20
9.358987344632216
 30
0.0
  0
VERTEX
  5
63
330
61
100
AcDbEntity
  8
lip
100
AcDbVertex
100
AcDb2dVertex
 10
81.70498632278315
 20
9.795103881090549
 30
0.0
  0
VERTEX
  5
64
330
61
100
AcDbEntity
  8
lip
100
AcDbVertex
100
AcDb2dVertex
 10
81.65909130105037
 20
10.16188448004888
 30
0.0
  0
VERTEX
  5
65
330
61
100
AcDbEntity
  8
lip
100
AcDbVertex
100
AcDb2dVertex
 10
81.61773762554524
 20
10.47153617275721
 30
0.0
  0
VERTEX
  5
66
330
61
100
AcDbEntity
  8
lip
100
AcDbVertex
100
AcDb2dVertex
 10
81.57959807056775
 20
10.73626599046555
 30
0.0
  0
VERTEX
  5
67
330
61
100
AcDbEntity
  8
lip
100
AcDbVertex
100
AcDb2dVertex
 10
81.54334541041777
 20
10.96828096442388
 30
0.0
  0
VERTEX
  5
68
330
61
100
AcDbEntity
  8
lip
100
AcDbVertex
100
AcDb2dVertex
 10
81.50765241939529
 20
11.17978812588221
 30
0.0
  0
VERTEX
  5
69
330
61
100
AcDbEntity
  8
lip
100
AcDbVertex
100
AcDb2dVertex
 10
81.47119187180019
 20
11.38299450609055
 30
0.0
  0
VERTEX
  5
6A
330
61
100
AcDbEntity
  8
lip
100
AcDbVertex
100
AcDb2dVertex
 10
81.43296822569942
 20
11.58766573004888
 30
0.0
  0
VERTEX
  5
6B
330
61
100
AcDbEntity
  8
lip
100
AcDbVertex
100
AcDb2dVertex
 10
81.39331267422788
 20
11.79380179775721
 30
0.0
  0
VERTEX
  5
6C
330
61
100
AcDbEntity
  8
lip
100
AcDbVertex
100
AcDb2dVertex
 10
81.35288809428741
 20
11.99896130296555
 30
0.0
  0
VERTEX
  5
6D
330
61
100
AcDbEntity
  8
lip
100
AcDbVertex
100
AcDb2dVertex
 10
81.31235736277991
 20
12.20070283942388
 30
0.0
  0
VERTEX
  5
6E
330
61
100
AcDbEntity
  8
lip
100
AcDbVertex
100
AcDb2dVertex
 10
81.27238335660724
 20
12.39658500088222
 30
0.0
  0
VERTEX
  5
6F
330
61
100
AcDbEntity
  8
lip
100
AcDbVertex
100
AcDb2dVertex
 10
81.23362895267128
 20
12.58416638109055
 30
0.0
  0
VERTEX
  5
70
330
61
100
AcDbEntity
  8
lip
100
AcDbVertex
100
AcDb2dVertex
 10
81.19675702787393
 20
12.76100557379888
 30
0.0
  0
VERTEX
  5
71
330
61
100
AcDbEntity
  8
lip
100
AcDbVertex
100
AcDb2dVertex
 10
81.16243045911703
 20
12.92466117275721
 30
0.0
  0
VERTEX
  5
72
330
61
100
AcDbEntity
  8
lip
100
AcDbVertex
100
AcDb2dVertex
 10
81.13109899834087
 20
13.07350557379888
 30
0.0
  0
VERTEX
  5
73
330
61
100
AcDbEntity
  8
lip
100
AcDbVertex
100
AcDb2dVertex
 10
81.10235989763927
 20
13.20916638109055
 30
0.0
  0
VERTEX
  5
74
330
61
100
AcDbEntity
  8
lip
100
AcDbVertex
100
AcDb2dVertex
 10
81.07559728414441
 20
13.33408500088222
 30
0.0
  0
VERTEX
  5
75
330
61
100
AcDbEntity
  8
lip
100
AcDbVertex
100
AcDb2dVertex
 10
81.05019528498852
 20
13.45070283942388
 30
0.0
  0
VERTEX
  5
76
330
61
100
AcDbEntity
  8
lip
100
AcDbVertex
100
AcDb2dVertex
 10
81.0255380273038
 20
13.56146130296555
 30
0.0
  0
VERTEX
  5
77
330
61
100
AcDbEntity
  8
lip
100
AcDbVertex
100
AcDb2dVertex
 10
81.00100963822246
 20
13.66880179775721
 30
0.0
  0
VERTEX
  5
78
330
61
100
AcDbEntity
  8
lip
100
AcDbVertex
100
AcDb2dVertex
 10
80.97599424487668
 20
13.77516573004888
 30
0.0
  0
VERTEX
  5
79
330
61
100
AcDbEntity
  8
lip
100
AcDbVertex
100
AcDb2dVertex
 10
80.94987597439873
 20
13.88299450609055
 30
0.0
  0
VERTEX
  5
7A
330
61
100
AcDbEntity
  8
lip
100
AcDbVertex
100
AcDb2dVertex
 10
80.92214078559663
 20
13.99424125088222
 30
0.0
  0
VERTEX
  5
7B
330
61
100
AcDbEntity
  8
lip
100
AcDbVertex
100
AcDb2dVertex
 10
80.89268196398206
 20
14.10890596442388
 30
0.0
  0
VERTEX
  5
7C
330
61
100
AcDbEntity
  8
lip
100
AcDbVertex
100
AcDb2dVertex
 10
80.86149462674248
 20
14.22650036546555
 30
0.0
  0
VERTEX
  5
7D
330
61
100
AcDbEntity
  8
lip
100
AcDbVertex
100
AcDb2dVertex
 10
80.82857389106539
 20
14.34653617275722
 30
0.0
  0
VERTEX
  5
7E
330
61
100
AcDbEntity
  8
lip
100
AcDbVertex
100
AcDb2dVertex
 10
80.79391487413831
 20
14.46852510504888
 30
0.0
  0
VERTEX
  5
7F
330
61
100
AcDbEntity
  8
lip
100
AcDbVertex
100
AcDb2dVertex
 10
80.75751269314872
 20
14.59197888109055
 30
0.0
  0
VERTEX
  5
80
330
61
100
AcDbEntity
  8
lip
100
AcDbVertex
100
AcDb2dVertex
 10
80.71936246528414
 20
14.71640921963222
 30
0.0
  0
VERTEX
  5
81
330
61
100
AcDbEntity
  8
lip
100
AcDbVertex
100
AcDb2dVertex
 10
80.67945930773205
 20
14.84132783942388
 30
0.0
  0
VERTEX
  5
82
330
61
100
AcDbEntity
  8
lip
100
AcDbVertex
100
AcDb2dVertex
 10
80.63781786892997
 20
14.96632783942388
 30
0.0
  0
VERTEX
  5
83
330
61
100
AcDbEntity
  8
lip
100
AcDbVertex
100
AcDb2dVertex
 10
80.59453092231539
 20
15.09132783942388
 30
0.0
  0
VERTEX
  5
84
330
61
100
AcDbEntity
  8
lip
100
AcDbVertex
100
AcDb2dVertex
 10
80.54971077257581
 20
15.21632783942388
 30
0.0
  0
VERTEX
  5
85
330
61
100
AcDbEntity
  8
lip
100
AcDbVertex
100
AcDb2dVertex
 10
80.50346972439873
 20
15.34132783942388
 30
0.0
  0
VERTEX
  5
86
330
61
100
AcDbEntity
  8
lip
100
AcDbVertex
100
AcDb2dVertex
 10
80.45592008247163
 20
15.46632783942388
 30
0.0
  0
VERTEX
  5
87
330
61
100
AcDbEntity
  8
lip
100
AcDbVertex
100
AcDb2dVertex
 10
80.40717415148206
 20
15.59132783942388
 30
0.0
  0
VERTEX
  5
88
330
61
100
AcDbEntity
  8
lip
100
AcDbVertex
100
AcDb2dVertex
 10
80.35734423611748
 20
15.71632783942388
 30
0.0
  0
VERTEX
  5
89
330
61
100
AcDbEntity
  8
lip
100
AcDbVertex
100
AcDb2dVertex
 10
80.30654264106539
 20
15.84132783942388
 30
0.0
  0
VERTEX
  5
8A
330
61
100
AcDbEntity
  8
lip
100
AcDbVertex
100
AcDb2dVertex
 10
80.25485477908047
 20
15.96633439812109
 30
0.0
  0
VERTEX
  5
8B
330
61
100
AcDbEntity
  8
lip
100
AcDbVertex
100
AcDb2dVertex
 10
80.20225849518604
 20
16.09138030900154
 30
0.0
  0
VERTEX
  5
8C
330
61
100
AcDbEntity
  8
lip
100
AcDbVertex
100
AcDb2dVertex
 10
80.1487047424726
 20
16.21650492424848
 30
0.0
  0
VERTEX
  5
8D
330
61
100
AcDbEntity
  8
lip
100
AcDbVertex
100
AcDb2dVertex
 10
80.09414447403063
 20
16.34174759604517
 30
0.0
  0
VERTEX
  5
8E
330
61
100
AcDbEntity
  8
lip
100
AcDbVertex
100
AcDb2dVertex
 10
80.03852864295062
 20
16.46714767657483
 30
0.0
  0
VERTEX
  5
8F
330
61
100
AcDbEntity
  8
lip
100
AcDbVertex
100
AcDb2dVertex
 10
79.98180820232306
 20
16.59274451802071
 30
0.0
  0
VERTEX
  5
90
330
61
100
AcDbEntity
  8
lip
100
AcDbVertex
100
AcDb2dVertex
 10
79.92393410523847
 20
16.71857747256607
 30
0.0
  0
VERTEX
  5
91
330
61
100
AcDbEntity
  8
lip
100
AcDbVertex
100
AcDb2dVertex
 10
79.8648573047873
 20
16.84468589239415
 30
0.0
  0
VERTEX
  5
92
330
61
100
AcDbEntity
  8
lip
100
AcDbVertex
100
AcDb2dVertex
 10
79.80446663270015
 20
16.97108985915748
 30
0.0
  0
VERTEX
  5
93
330
61
100
AcDbEntity
  8
lip
100
AcDbVertex
100
AcDb2dVertex
 10
79.74240243526804
 20
17.09773237238573
 30
0.0
  0
VERTEX
  5
94
330
61
100
AcDbEntity
  8
lip
100
AcDbVertex
100
AcDb2dVertex
 10
79.67824293742205
 20
17.22453716107789
 30
0.0
  0
VERTEX
  5
95
330
61
100
AcDbEntity
  8
lip
100
AcDbVertex
100
AcDb2dVertex
 10
79.61156636409326
 20
17.35142795423289
 30
0.0
  0
VERTEX
  5
96
330
61
100
AcDbEntity
  8
lip
100
AcDbVertex
100
AcDb2dVertex
 10
79.54195094021279
 20
17.47832848084973
 30
0.0
  0
VERTEX
  5
97
330
61
100
AcDbEntity
  8
lip
100
AcDbVertex
100
AcDb2dVertex
 10
79.46897489071173
 20
17.60516246992735
 30
0.0
  0
VERTEX
  5
98
330
61
100
AcDbEntity
  8
lip
100
AcDbVertex
100
AcDb2dVertex
 10
79.39221644052115
 20
17.73185365046473
 30
0.0
  0
VERTEX
  5
99
330
61
100
AcDbEntity
  8
lip
100
AcDbVertex
100
AcDb2dVertex
 10
79.31125381457218
 20
17.85832575146084
 30
0.0
  0
VERTEX
  5
9A
330
61
100
AcDbEntity
  8
lip
100
AcDbVertex
100
AcDb2dVertex
 10
79.22569829047851
 20
17.98455823170939
 30
0.0
  0
VERTEX
  5
9B
330
61
100
AcDbEntity
  8
lip
100
AcDbVertex
100
AcDb2dVertex
 10
79.13529335658445
 20
18.1107534691831
 30
0.0
  0
VERTEX
  5
9C
330
61
100
AcDbEntity
  8
lip
100
AcDbVertex
100
AcDb2dVertex
 10
79.03981555391687
 20
18.23716957164948
 30
0.0
  0
VERTEX
  5
9D
330
61
100
AcDbEntity
  8
lip
100
AcDbVertex
100
AcDb2dVertex
 10
78.93904142350269
 20
18.364064646876
 30
0.0
  0
VERTEX
  5
9E
330
61
100
AcDbEntity
  8
lip
100
AcDbVertex
100
AcDb2dVertex
 10
78.83274750636878
 20
18.49169680263014
 30
0.0
  0
VERTEX
  5
9F
330
61
100
AcDbEntity
  8
lip
100
AcDbVertex
100
AcDb2dVertex
 10
78.72071034354205
 20
18.6203241466794
 30
0.0
  0
VERTEX
  5
A0
330
61
100
AcDbEntity
  8
lip
100
AcDbVertex
100
AcDb2dVertex
 10
78.60270647604941
 20
18.75020478679125
 30
0.0
  0
VERTEX
  5
A1
330
61
100
AcDbEntity
  8
lip
100
AcDbVertex
100
AcDb2dVertex
 10
78.47851244491778
 20
18.88159683073317
 30
0.0
  0
VERTEX
  5
A2
330
61
100
AcDbEntity
  8
lip
100
AcDbVertex
100
AcDb2dVertex
 10
78.34721946303869
 20
19.01477781024604
 30
0.0
  0
VERTEX
  5
A3
330
61
100
AcDbEntity
  8
lip
100
AcDbVertex
100
AcDb2dVertex
 10
78.2051774307625
 20
19.15010295296421
 30
0.0
  0
VERTEX
  5
A4
330
61
100
AcDbEntity
  8
lip
100
AcDbVertex
100
AcDb2dVertex
 10
78.0480509203042
 20
19.28794691049542
 30
0.0
  0
VERTEX
  5
A5
330
61
100
AcDbEntity
  8
lip
100
AcDbVertex
100
AcDb2dVertex
 10
77.87150450387883
 20
19.42868433444743
 30
0.0
  0
VERTEX
  5
A6
330
61
100
AcDbEntity
  8
lip
100
AcDbVertex
100
AcDb2dVertex
 10
77.67120275370134
 20
19.57268987642795
 30
0.0
  0
VERTEX
  5
A7
330
61
100
AcDbEntity
  8
lip
100
AcDbVertex
100
AcDb2dVertex
 10
77.44281024198676
 20
19.72033818804474
 30
0.0
  0
VERTEX
  5
A8
330
61
100
AcDbEntity
  8
lip
100
AcDbVertex
100
AcDb2dVertex
 10
77.18199154095009
 20
19.87200392090554
 30
0.0
  0
VERTEX
  5
A9
330
61
100
AcDbEntity
  8
lip
100
AcDbVertex
100
AcDb2dVertex
 10
76.88441122280635
 20
20.02806172661809
 30
0.0
  0
VERTEX
  5
AA
330
61
100
AcDbEntity
  8
lip
100
AcDbVertex
100
AcDb2dVertex
 10
76.54615985621609
 20
20.18861619985948
 30
0.0
  0
VERTEX
  5
AB
330
61
100
AcDbEntity
  8
lip
100
AcDbVertex
100
AcDb2dVertex
 10
76.16503199562217
 20
20.35269170758428
 30
0.0
  0
VERTEX
  5
AC
330
61
100
AcDbEntity
  8
lip
100
AcDbVertex
100
AcDb2dVertex
 10
75.73924819191299
 20
20.51904255981639
 30
0.0
  0
VERTEX
  5
AD
330
61
100
AcDbEntity
  8
lip
100
AcDbVertex
100
AcDb2dVertex
 10
75.26702899597691
 20
20.68642306657975
 30
0.0
  0
VERTEX
  5
AE
330
61
100
AcDbEntity
  8
lip
100
AcDbVertex
100
AcDb2dVertex
 10
74.7465949587024
 20
20.85358753789826
 30
0.0
  0
VERTEX
  5
AF
330
61
100
AcDbEntity
  8
lip
100
AcDbVertex
100
AcDb2dVertex
 10
74.1761666309778
 20
21.01929028379584
 30
0.0
  0
VERTEX
  5
B0
330
61
100
AcDbEntity
  8
lip
100
AcDbVertex
100
AcDb2dVertex
 10
73.55396456369156
 20
21.18228561429641
 30
0.0
  0
VERTEX
  5
B1
330
61
100
AcDbEntity
  8
lip
100
AcDbVertex
100
AcDb2dVertex
 10
72.87820930773205
 20
21.34132783942388
 30
0.0
  0
SEQEND
  5
B2
330
61
100
AcDbEntity
  8
lip
  0
ARC
  5
B3
330
2
100
AcDbEntity
  8
lip
100
AcDbCircle
 10
18.58961381904198
 20
9.341327839423881
 30
0.0
 40
0.4999999999999986
100
AcDbArc
 50
177.9759488065112
 51
270.0
  0
ARC
  5
B4
330
2
100
AcDbEntity
  8
lip
100
AcDbCircle
 10
58.01569073594305
 20
-18.40867216057611
 30
0.0
 40
42.0
100
AcDbArc
 50
77.73522627210758
 51
90.0
1001
GENIUS_GENODEF_13
1002
{
1000
HIER
1070
     0
1002
}
1002
{
1000
MANEDIT
1070
     0
1002
}
1002
{
1000
NOSEL
1070
     0
1002
}
1002
{
1000
BEHIND
1070
     0
1002
}
1002
{
1000
OTHER
1070
     0
1002
}
1002
{
1000
REACTOR
1002
}
1001
GENIUS_GENOBJ-N-FIL_13
1002
{
1000
OWNER
1000
GEN
1002
}
  0
LINE
  5
B5
330
2
100
AcDbEntity
  8
lip
100
AcDbLine
 10
66.93773579784689
 20
22.63273512418152
 30
0.0
 11
72.87820930773204
 21
21.34132783942388
 31
0.0
  0
LINE
  5
B6
330
2
100
AcDbEntity
  8
lip
100
AcDbLine
 10
18.58961381904198
 20
8.841327839423883
 30
0.0
 11
24.2248413203184
 21
8.841327839423883
 31
0.0
  0
LINE
  5
B7
330
2
100
AcDbEntity
  8
lip
100
AcDbLine
 10
27.96662025021636
 20
13.84132783942388
 30
0.0
 11
71.87820930773203
 21
13.84132783942388
 31
0.0
  0
LINE
  5
B8
330
2
100
AcDbEntity
  8
lip
100
AcDbLine
 10
27.82912084139492
 20
13.84056265614935
 30
0.0
 11
27.96662025021636
 21
13.84132783942388
 31
0.0
  0
LINE
  5
B9
330
2
100
AcDbEntity
  8
lip
100
AcDbLine
 10
27.67420836533112
 20
13.82391619093203
 30
0.0
 11
27.82912084139492
 21
13.84056265614935
 31
0.0
  0
LINE
  5
BA
330
2
100
AcDbEntity
  8
lip
100
AcDbLine
 10
27.50714237009074
 20
13.79370354650739
 30
0.0
 11
27.67420836533112
 21
13.82391619093203
 31
0.0
  0
LINE
  5
BB
330
2
100
AcDbEntity
  8
lip
100
AcDbLine
 10
27.33318240373954
 20
13.75223982561091
 30
0.0
 11
27.50714237009074
 21
13.79370354650739
 31
0.0
  0
LINE
  5
BC
330
2
100
AcDbEntity
  8
lip
100
AcDbLine
 10
27.15758801434329
 20
13.70184013097806
 30
0.0
 11
27.33318240373954
 21
13.75223982561091
 31
0.0
  0
LINE
  5
BD
330
2
100
AcDbEntity
  8
lip
100
AcDbLine
 10
26.98561874996776
 20
13.64481956534431
 30
0.0
 11
27.15758801434329
 21
13.70184013097806
 31
0.0
  0
LINE
  5
BE
330
2
100
AcDbEntity
  8
lip
100
AcDbLine
 10
26.82253415867871
 20
13.58349323144512
 30
0.0
 11
26.98561874996776
 21
13.64481956534431
 31
0.0
  0
LINE
  5
BF
330
2
100
AcDbEntity
  8
lip
100
AcDbLine
 10
26.67359378854191
 20
13.52017623201599
 30
0.0
 11
26.82253415867871
 21
13.58349323144512
 31
0.0
  0
LINE
  5
C0
330
2
100
AcDbEntity
  8
lip
100
AcDbLine
 10
26.54273697342501
 20
13.45677331881861
 30
0.0
 11
26.67359378854191
 21
13.52017623201599
 31
0.0
  0
LINE
  5
C1
330
2
100
AcDbEntity
  8
lip
100
AcDbLine
 10
26.42862219040322
 20
13.3935478397196
 30
0.0
 11
26.54273697342501
 21
13.45677331881861
 31
0.0
  0
LINE
  5
C2
330
2
100
AcDbEntity
  8
lip
100
AcDbLine
 10
26.3285877023536
 20
13.33035279161183
 30
0.0
 11
26.42862219040322
 21
13.3935478397196
 31
0.0
  0
LINE
  5
C3
330
2
100
AcDbEntity
  8
lip
100
AcDbLine
 10
26.23997177215322
 20
13.26704117138815
 30
0.0
 11
26.3285877023536
 21
13.33035279161183
 31
0.0
  0
LINE
  5
C4
330
2
100
AcDbEntity
  8
lip
100
AcDbLine
 10
26.16011266267917
 20
13.20346597594143
 30
0.0
 11
26.23997177215322
 21
13.26704117138815
 31
0.0
  0
LINE
  5
C5
330
2
100
AcDbEntity
  8
lip
100
AcDbLine
 10
26.08634863680853
 20
13.13948020216451
 30
0.0
 11
26.16011266267917
 21
13.20346597594143
 31
0.0
  0
LINE
  5
C6
330
2
100
AcDbEntity
  8
lip
100
AcDbLine
 10
26.01601795741836
 20
13.07493684695027
 30
0.0
 11
26.08634863680853
 21
13.13948020216451
 31
0.0
  0
LINE
  5
C7
330
2
100
AcDbEntity
  8
lip
100
AcDbLine
 10
25.94645888738574
 20
13.00968890719156
 30
0.0
 11
26.01601795741836
 21
13.07493684695027
 31
0.0
  0
LINE
  5
C8
330
2
100
AcDbEntity
  8
lip
100
AcDbLine
 10
25.87557144542691
 20
12.94332574492126
 30
0.0
 11
25.94645888738574
 21
13.00968890719156
 31
0.0
  0
LINE
  5
C9
330
2
100
AcDbEntity
  8
lip
100
AcDbLine
 10
25.80350267361471
 20
12.87438218273233
 30
0.0
 11
25.87557144542691
 21
12.94332574492126
 31
0.0
  0
LINE
  5
CA
330
2
100
AcDbEntity
  8
lip
100
AcDbLine
 10
25.73096136986118
 20
12.80112940835778
 30
0.0
 11
25.80350267361471
 21
12.87438218273233
 31
0.0
  0
LINE
  5
CB
330
2
100
AcDbEntity
  8
lip
100
AcDbLine
 10
25.65865633207832
 20
12.72183860953059
 30
0.0
 11
25.73096136986118
 21
12.80112940835778
 31
0.0
  0
LINE
  5
CC
330
2
100
AcDbEntity
  8
lip
100
AcDbLine
 10
25.58729635817815
 20
12.63478097398375
 30
0.0
 11
25.65865633207832
 21
12.72183860953059
 31
0.0
  0
LINE
  5
CD
330
2
100
AcDbEntity
  8
lip
100
AcDbLine
 10
25.51759024607267
 20
12.53822768945024
 30
0.0
 11
25.58729635817815
 21
12.63478097398375
 31
0.0
  0
LINE
  5
CE
330
2
100
AcDbEntity
  8
lip
100
AcDbLine
 10
25.4502467936739
 20
12.43044994366307
 30
0.0
 11
25.51759024607267
 21
12.53822768945024
 31
0.0
  0
LINE
  5
CF
330
2
100
AcDbEntity
  8
lip
100
AcDbLine
 10
25.38597479889387
 20
12.30971892435523
 30
0.0
 11
25.4502467936739
 21
12.43044994366307
 31
0.0
  0
LINE
  5
D0
330
2
100
AcDbEntity
  8
lip
100
AcDbLine
 10
25.32528748377807
 20
12.17495443604701
 30
0.0
 11
25.38597479889387
 21
12.30971892435523
 31
0.0
  0
LINE
  5
D1
330
2
100
AcDbEntity
  8
lip
100
AcDbLine
 10
25.267915766906
 20
12.02767075040795
 30
0.0
 11
25.32528748377807
 21
12.17495443604701
 31
0.0
  0
LINE
  5
D2
330
2
100
AcDbEntity
  8
lip
100
AcDbLine
 10
25.21339499099065
 20
11.87003075589489
 30
0.0
 11
25.267915766906
 21
12.02767075040795
 31
0.0
  0
LINE
  5
D3
330
2
100
AcDbEntity
  8
lip
100
AcDbLine
 10
25.16126049874499
 20
11.70419734096467
 30
0.0
 11
25.21339499099065
 21
11.87003075589489
 31
0.0
  0
LINE
  5
D4
330
2
100
AcDbEntity
  8
lip
100
AcDbLine
 10
25.11104763288202
 20
11.53233339407414
 30
0.0
 11
25.16126049874499
 21
11.70419734096467
 31
0.0
  0
LINE
  5
D5
330
2
100
AcDbEntity
  8
lip
100
AcDbLine
 10
25.06229173611472
 20
11.35660180368014
 30
0.0
 11
25.11104763288202
 21
11.53233339407414
 31
0.0
  0
LINE
  5
D6
330
2
100
AcDbEntity
  8
lip
100
AcDbLine
 10
25.01452815115607
 20
11.17916545823951
 30
0.0
 11
25.06229173611472
 21
11.35660180368014
 31
0.0
  0
LINE
  5
D7
330
2
100
AcDbEntity
  8
lip
100
AcDbLine
 10
24.96729222071908
 20
11.00218724620911
 30
0.0
 11
25.01452815115607
 21
11.17916545823951
 31
0.0
  0
LINE
  5
D8
330
2
100
AcDbEntity
  8
lip
100
AcDbLine
 10
24.91986493851946
 20
10.82583577259238
 30
0.0
 11
24.96729222071908
 21
11.00218724620911
 31
0.0
  0
LINE
  5
D9
330
2
100
AcDbEntity
  8
lip
100
AcDbLine
 10
24.87050990228403
 20
10.64230250857927
 30
0.0
 11
24.91986493851946
 21
10.82583577259238
 31
0.0
  0
LINE
  5
DA
330
2
100
AcDbEntity
  8
lip
100
AcDbLine
 10
24.81723636074234
 20
10.44178464190634
 30
0.0
 11
24.87050990228403
 21
10.64230250857927
 31
0.0
  0
LINE
  5
DB
330
2
100
AcDbEntity
  8
lip
100
AcDbLine
 10
24.75805356262393
 20
10.21447936031014
 30
0.0
 11
24.81723636074234
 21
10.44178464190634
 31
0.0
  0
LINE
  5
DC
330
2
100
AcDbEntity
  8
lip
100
AcDbLine
 10
24.69097075665836
 20
9.950583851527243
 30
0.0
 11
24.75805356262393
 21
10.21447936031014
 31
0.0
  0
LINE
  5
DD
330
2
100
AcDbEntity
  8
lip
100
AcDbLine
 10
24.61399719157518
 20
9.640295303294193
 30
0.0
 11
24.69097075665836
 21
9.950583851527243
 31
0.0
  0
LINE
  5
DE
330
2
100
AcDbEntity
  8
lip
100
AcDbLine
 10
24.52514211610395
 20
9.273810903347554
 30
0.0
 11
24.61399719157518
 21
9.640295303294193
 31
0.0
  0
ARC
  5
DF
330
2
100
AcDbEntity
  8
lip
100
AcDbCircle
 10
24.2248413203184
 20
9.091327839423883
 30
0.0
 40
0.25
100
AcDbArc
 50
270.0
 51
346.6382002497074
1001
GENIUS_GENODEF_13
1002
{
1000
HIER
1070
     0
1002
}
1002
{
1000
MANEDIT
1070
     0
1002
}
1002
{
1000
NOSEL
1070
     0
1002
}
1002
{
1000
BEHIND
1070
     0
1002
}
1002
{
1000
OTHER
1070
     0
1002
}
1002
{
1000
REACTOR
1002
}
1001
GENIUS_GENOBJ-N-FIL_13
1002
{
1000
OWNER
1000
GEN
1002
}
  0
LINE
  5
E0
330
2
100
AcDbEntity
  8
lip
100
AcDbLine
 10
24.46807386356435
 20
9.033553018730877
 30
0.0
 11
24.52514211610395
 21
9.273810903347554
 31
0.0
  0
POLYLINE
  5
E1
330
2
100
AcDbEntity
  8
lip
100
AcDb2dPolyline
 66
     1
 10
0.0
 20
0.0
 30
0.0
  0
VERTEX
  5
E2
330
E1
100
AcDbEntity
  8
lip
100
AcDbVertex
100
AcDb2dVertex
 10
18.08992577448238
 20
9.358987344632216
 30
0.0
  0
VERTEX
  5
E3
330
E1
100
AcDbEntity
  8
lip
100
AcDbVertex
100
AcDb2dVertex
 10
18.13984323516526
 20
9.795103881090549
 30
0.0
  0
VERTEX
  5
E4
330
E1
100
AcDbEntity
  8
lip
100
AcDbVertex
100
AcDb2dVertex
 10
18.18573825689805
 20
10.16188448004888
 30
0.0
  0
VERTEX
  5
E5
330
E1
100
AcDbEntity
  8
lip
100
AcDbVertex
100
AcDb2dVertex
 10
18.22709193240317
 20
10.47153617275721
 30
0.0
  0
VERTEX
  5
E6
330
E1
100
AcDbEntity
  8
lip
100
AcDbVertex
100
AcDb2dVertex
 10
18.26523148738068
 20
10.73626599046555
 30
0.0
  0
VERTEX
  5
E7
330
E1
100
AcDbEntity
  8
lip
100
AcDbVertex
100
AcDb2dVertex
 10
18.30148414753065
 20
10.96828096442388
 30
0.0
  0
VERTEX
  5
E8
330
E1
100
AcDbEntity
  8
lip
100
AcDbVertex
100
AcDb2dVertex
 10
18.33717713855314
 20
11.17978812588221
 30
0.0
  0
VERTEX
  5
E9
330
E1
100
AcDbEntity
  8
lip
100
AcDbVertex
100
AcDb2dVertex
 10
18.37363768614823
 20
11.38299450609055
 30
0.0
  0
VERTEX
  5
EA
330
E1
100
AcDbEntity
  8
lip
100
AcDbVertex
100
AcDb2dVertex
 10
18.411861332249
 20
11.58766573004888
 30
0.0
  0
VERTEX
  5
EB
330
E1
100
AcDbEntity
  8
lip
100
AcDbVertex
100
AcDb2dVertex
 10
18.45151688372055
 20
11.79380179775721
 30
0.0
  0
VERTEX
  5
EC
330
E1
100
AcDbEntity
  8
lip
100
AcDbVertex
100
AcDb2dVertex
 10
18.49194146366102
 20
11.99896130296555
 30
0.0
  0
VERTEX
  5
ED
330
E1
100
AcDbEntity
  8
lip
100
AcDbVertex
100
AcDb2dVertex
 10
18.53247219516852
 20
12.20070283942388
 30
0.0
  0
VERTEX
  5
EE
330
E1
100
AcDbEntity
  8
lip
100
AcDbVertex
100
AcDb2dVertex
 10
18.57244620134119
 20
12.39658500088222
 30
0.0
  0
VERTEX
  5
EF
330
E1
100
AcDbEntity
  8
lip
100
AcDbVertex
100
AcDb2dVertex
 10
18.61120060527714
 20
12.58416638109055
 30
0.0
  0
VERTEX
  5
F0
330
E1
100
AcDbEntity
  8
lip
100
AcDbVertex
100
AcDb2dVertex
 10
18.64807253007449
 20
12.76100557379888
 30
0.0
  0
VERTEX
  5
F1
330
E1
100
AcDbEntity
  8
lip
100
AcDbVertex
100
AcDb2dVertex
 10
18.68239909883138
 20
12.92466117275721
 30
0.0
  0
VERTEX
  5
F2
330
E1
100
AcDbEntity
  8
lip
100
AcDbVertex
100
AcDb2dVertex
 10
18.71373055960754
 20
13.07350557379888
 30
0.0
  0
VERTEX
  5
F3
330
E1
100
AcDbEntity
  8
lip
100
AcDbVertex
100
AcDb2dVertex
 10
18.74246966030916
 20
13.20916638109055
 30
0.0
  0
VERTEX
  5
F4
330
E1
100
AcDbEntity
  8
lip
100
AcDbVertex
100
AcDb2dVertex
 10
18.76923227380401
 20
13.33408500088222
 30
0.0
  0
VERTEX
  5
F5
330
E1
100
AcDbEntity
  8
lip
100
AcDbVertex
100
AcDb2dVertex
 10
18.79463427295991
 20
13.45070283942388
 30
0.0
  0
VERTEX
  5
F6
330
E1
100
AcDbEntity
  8
lip
100
AcDbVertex
100
AcDb2dVertex
 10
18.81929153064463
 20
13.56146130296555
 30
0.0
  0
VERTEX
  5
F7
330
E1
100
AcDbEntity
  8
lip
100
AcDbVertex
100
AcDb2dVertex
 10
18.84381991972597
 20
13.66880179775721
 30
0.0
  0
VERTEX
  5
F8
330
E1
100
AcDbEntity
  8
lip
100
AcDbVertex
100
AcDb2dVertex
 10
18.86883531307173
 20
13.77516573004888
 30
0.0
  0
VERTEX
  5
F9
330
E1
100
AcDbEntity
  8
lip
100
AcDbVertex
100
AcDb2dVertex
 10
18.8949535835497
 20
13.88299450609055
 30
0.0
  0
VERTEX
  5
FA
330
E1
100
AcDbEntity
  8
lip
100
AcDbVertex
100
AcDb2dVertex
 10
18.92268877235178
 20
13.99424125088222
 30
0.0
  0
VERTEX
  5
FB
330
E1
100
AcDbEntity
  8
lip
100
AcDbVertex
100
AcDb2dVertex
 10
18.95214759396636
 20
14.10890596442388
 30
0.0
  0
VERTEX
  5
FC
330
E1
100
AcDbEntity
  8
lip
100
AcDbVertex
100
AcDb2dVertex
 10
18.98333493120594
 20
14.22650036546555
 30
0.0
  0
VERTEX
  5
FD
330
E1
100
AcDbEntity
  8
lip
100
AcDbVertex
100
AcDb2dVertex
 10
19.01625566688303
 20
14.34653617275722
 30
0.0
  0
VERTEX
  5
FE
330
E1
100
AcDbEntity
  8
lip
100
AcDbVertex
100
AcDb2dVertex
 10
19.05091468381011
 20
14.46852510504888
 30
0.0
  0
VERTEX
  5
FF
330
E1
100
AcDbEntity
  8
lip
100
AcDbVertex
100
AcDb2dVertex
 10
19.08731686479969
 20
14.59197888109055
 30
0.0
  0
VERTEX
  5
100
330
E1
100
AcDbEntity
  8
lip
100
AcDbVertex
100
AcDb2dVertex
 10
19.12546709266427
 20
14.71640921963222
 30
0.0
  0
VERTEX
  5
101
330
E1
100
AcDbEntity
  8
lip
100
AcDbVertex
100
AcDb2dVertex
 10
19.16537025021636
 20
14.84132783942388
 30
0.0
  0
VERTEX
  5
102
330
E1
100
AcDbEntity
  8
lip
100
AcDbVertex
100
AcDb2dVertex
 10
19.20701168901844
 20
14.96632783942388
 30
0.0
  0
VERTEX
  5
103
330
E1
100
AcDbEntity
  8
lip
100
AcDbVertex
100
AcDb2dVertex
 10
19.25029863563303
 20
15.09132783942388
 30
0.0
  0
VERTEX
  5
104
330
E1
100
AcDbEntity
  8
lip
100
AcDbVertex
100
AcDb2dVertex
 10
19.29511878537261
 20
15.21632783942388
 30
0.0
  0
VERTEX
  5
105
330
E1
100
AcDbEntity
  8
lip
100
AcDbVertex
100
AcDb2dVertex
 10
19.3413598335497
 20
15.34132783942388
 30
0.0
  0
VERTEX
  5
106
330
E1
100
AcDbEntity
  8
lip
100
AcDbVertex
100
AcDb2dVertex
 10
19.38890947547678
 20
15.46632783942388
 30
0.0
  0
VERTEX
  5
107
330
E1
100
AcDbEntity
  8
lip
100
AcDbVertex
100
AcDb2dVertex
 10
19.43765540646636
 20
15.59132783942388
 30
0.0
  0
VERTEX
  5
108
330
E1
100
AcDbEntity
  8
lip
100
AcDbVertex
100
AcDb2dVertex
 10
19.48748532183095
 20
15.71632783942388
 30
0.0
  0
VERTEX
  5
109
330
E1
100
AcDbEntity
  8
lip
100
AcDbVertex
100
AcDb2dVertex
 10
19.53828691688303
 20
15.84132783942388
 30
0.0
  0
VERTEX
  5
10A
330
E1
100
AcDbEntity
  8
lip
100
AcDbVertex
100
AcDb2dVertex
 10
19.58997477886795
 20
15.96633439812109
 30
0.0
  0
VERTEX
  5
10B
330
E1
100
AcDbEntity
  8
lip
100
AcDbVertex
100
AcDb2dVertex
 10
19.64257106276237
 20
16.09138030900154
 30
0.0
  0
VERTEX
  5
10C
330
E1
100
AcDbEntity
  8
lip
100
AcDbVertex
100
AcDb2dVertex
 10
19.69612481547582
 20
16.21650492424848
 30
0.0
  0
VERTEX
  5
10D
330
E1
100
AcDbEntity
  8
lip
100
AcDbVertex
100
AcDb2dVertex
 10
19.75068508391779
 20
16.34174759604517
 30
0.0
  0
VERTEX
  5
10E
330
E1
100
AcDbEntity
  8
lip
100
AcDbVertex
100
AcDb2dVertex
 10
19.8063009149978
 20
16.46714767657483
 30
0.0
  0
VERTEX
  5
10F
330
E1
100
AcDbEntity
  8
lip
100
AcDbVertex
100
AcDb2dVertex
 10
19.86302135562535
 20
16.59274451802071
 30
0.0
  0
VERTEX
  5
110
330
E1
100
AcDbEntity
  8
lip
100
AcDbVertex
100
AcDb2dVertex
 10
19.92089545270995
 20
16.71857747256607
 30
0.0
  0
VERTEX
  5
111
330
E1
100
AcDbEntity
  8
lip
100
AcDbVertex
100
AcDb2dVertex
 10
19.97997225316112
 20
16.84468589239415
 30
0.0
  0
VERTEX
  5
112
330
E1
100
AcDbEntity
  8
lip
100
AcDbVertex
100
AcDb2dVertex
 10
20.04036292524826
 20
16.97108985915748
 30
0.0
  0
VERTEX
  5
113
330
E1
100
AcDbEntity
  8
lip
100
AcDbVertex
100
AcDb2dVertex
 10
20.10242712268037
 20
17.09773237238573
 30
0.0
  0
VERTEX
  5
114
330
E1
100
AcDbEntity
  8
lip
100
AcDbVertex
100
AcDb2dVertex
 10
20.16658662052637
 20
17.22453716107789
 30
0.0
  0
VERTEX
  5
115
330
E1
100
AcDbEntity
  8
lip
100
AcDbVertex
100
AcDb2dVertex
 10
20.23326319385515
 20
17.35142795423289
 30
0.0
  0
VERTEX
  5
116
330
E1
100
AcDbEntity
  8
lip
100
AcDbVertex
100
AcDb2dVertex
 10
20.30287861773562
 20
17.47832848084973
 30
0.0
  0
VERTEX
  5
117
330
E1
100
AcDbEntity
  8
lip
100
AcDbVertex
100
AcDb2dVertex
 10
20.37585466723669
 20
17.60516246992735
 30
0.0
  0
VERTEX
  5
118
330
E1
100
AcDbEntity
  8
lip
100
AcDbVertex
100
AcDb2dVertex
 10
20.45261311742727
 20
17.73185365046473
 30
0.0
  0
VERTEX
  5
119
330
E1
100
AcDbEntity
  8
lip
100
AcDbVertex
100
AcDb2dVertex
 10
20.53357574337624
 20
17.85832575146084
 30
0.0
  0
VERTEX
  5
11A
330
E1
100
AcDbEntity
  8
lip
100
AcDbVertex
100
AcDb2dVertex
 10
20.6191312674699
 20
17.98455823170939
 30
0.0
  0
VERTEX
  5
11B
330
E1
100
AcDbEntity
  8
lip
100
AcDbVertex
100
AcDb2dVertex
 10
20.70953620136396
 20
18.1107534691831
 30
0.0
  0
VERTEX
  5
11C
330
E1
100
AcDbEntity
  8
lip
100
AcDbVertex
100
AcDb2dVertex
 10
20.80501400403155
 20
18.23716957164948
 30
0.0
  0
VERTEX
  5
11D
330
E1
100
AcDbEntity
  8
lip
100
AcDbVertex
100
AcDb2dVertex
 10
20.90578813444574
 20
18.364064646876
 30
0.0
  0
VERTEX
  5
11E
330
E1
100
AcDbEntity
  8
lip
100
AcDbVertex
100
AcDb2dVertex
 10
21.01208205157965
 20
18.49169680263014
 30
0.0
  0
VERTEX
  5
11F
330
E1
100
AcDbEntity
  8
lip
100
AcDbVertex
100
AcDb2dVertex
 10
21.12411921440636
 20
18.6203241466794
 30
0.0
  0
VERTEX
  5
120
330
E1
100
AcDbEntity
  8
lip
100
AcDbVertex
100
AcDb2dVertex
 10
21.242123081899
 20
18.75020478679125
 30
0.0
  0
VERTEX
  5
121
330
E1
100
AcDbEntity
  8
lip
100
AcDbVertex
100
AcDb2dVertex
 10
21.36631711303064
 20
18.88159683073317
 30
0.0
  0
VERTEX
  5
122
330
E1
100
AcDbEntity
  8
lip
100
AcDbVertex
100
AcDb2dVertex
 10
21.49761009490972
 20
19.01477781024604
 30
0.0
  0
VERTEX
  5
123
330
E1
100
AcDbEntity
  8
lip
100
AcDbVertex
100
AcDb2dVertex
 10
21.63965212718591
 20
19.15010295296421
 30
0.0
  0
VERTEX
  5
124
330
E1
100
AcDbEntity
  8
lip
100
AcDbVertex
100
AcDb2dVertex
 10
21.79677863764421
 20
19.28794691049542
 30
0.0
  0
VERTEX
  5
125
330
E1
100
AcDbEntity
  8
lip
100
AcDbVertex
100
AcDb2dVertex
 10
21.9733250540696
 20
19.42868433444743
 30
0.0
  0
VERTEX
  5
126
330
E1
100
AcDbEntity
  8
lip
100
AcDbVertex
100
AcDb2dVertex
 10
22.17362680424708
 20
19.57268987642795
 30
0.0
  0
VERTEX
  5
127
330
E1
100
AcDbEntity
  8
lip
100
AcDbVertex
100
AcDb2dVertex
 10
22.40201931596166
 20
19.72033818804474
 30
0.0
  0
VERTEX
  5
128
330
E1
100
AcDbEntity
  8
lip
100
AcDbVertex
100
AcDb2dVertex
 10
22.66283801699832
 20
19.87200392090554
 30
0.0
  0
VERTEX
  5
129
330
E1
100
AcDbEntity
  8
lip
100
AcDbVertex
100
AcDb2dVertex
 10
22.96041833514207
 20
20.02806172661809
 30
0.0
  0
VERTEX
  5
12A
330
E1
100
AcDbEntity
  8
lip
100
AcDbVertex
100
AcDb2dVertex
 10
23.29866970173232
 20
20.18861619985948
 30
0.0
  0
VERTEX
  5
12B
330
E1
100
AcDbEntity
  8
lip
100
AcDbVertex
100
AcDb2dVertex
 10
23.67979756232624
 20
20.35269170758428
 30
0.0
  0
VERTEX
  5
12C
330
E1
100
AcDbEntity
  8
lip
100
AcDbVertex
100
AcDb2dVertex
 10
24.10558136603544
 20
20.51904255981639
 30
0.0
  0
VERTEX
  5
12D
330
E1
100
AcDbEntity
  8
lip
100
AcDbVertex
100
AcDb2dVertex
 10
24.5778005619715
 20
20.68642306657975
 30
0.0
  0
VERTEX
  5
12E
330
E1
100
AcDbEntity
  8
lip
100
AcDbVertex
100
AcDb2dVertex
 10
25.09823459924602
 20
20.85358753789826
 30
0.0
  0
VERTEX
  5
12F
330
E1
100
AcDbEntity
  8
lip
100
AcDbVertex
100
AcDb2dVertex
 10
25.66866292697061
 20
21.01929028379584
 30
0.0
  0
VERTEX
  5
130
330
E1
100
AcDbEntity
  8
lip
100
AcDbVertex
100
AcDb2dVertex
 10
26.29086499425686
 20
21.18228561429641
 30
0.0
  0
VERTEX
  5
131
330
E1
100
AcDbEntity
  8
lip
100
AcDbVertex
100
AcDb2dVertex
 10
26.96662025021636
 20
21.34132783942388
 30
0.0
  0
SEQEND
  5
132
330
E1
100
AcDbEntity
  8
lip
  0
LINE
  5
133
330
2
100
AcDbEntity
  8
lip
100
AcDbLine
 10
32.9070937601015
 20
22.63273512418151
 30
0.0
 11
26.96662025021637
 21
21.34132783942388
 31
0.0
  0
ARC
  5
134
330
2
100
AcDbEntity
  8
lip
100
AcDbCircle
 10
41.82913882200534
 20
-18.40867216057612
 30
0.0
 40
42.0
100
AcDbArc
 50
90.0
 51
102.2647737278924
1001
GENIUS_GENODEF_13
1002
{
1000
HIER
1070
     0
1002
}
1002
{
1000
MANEDIT
1070
     0
1002
}
1002
{
1000
NOSEL
1070
     0
1002
}
1002
{
1000
BEHIND
1070
     0
1002
}
1002
{
1000
OTHER
1070
     0
1002
}
1002
{
1000
REACTOR
1002
}
1001
GENIUS_GENOBJ-N-FIL_13
1002
{
1000
OWNER
1000
GEN
1002
}
  0
LINE
  5
135
330
2
100
AcDbEntity
  8
lip
100
AcDbLine
 10
41.82913882200534
 20
23.59132783942388
 30
0.0
 11
58.01569073594304
 21
23.59132783942389
 31
0.0
  0
ENDSEC
  0
SECTION
  2
OBJECTS
  0
DICTIONARY
  5
9
330
0
100
AcDbDictionary
281
     1
  3
ACAD_COLOR
350
2C
  3
ACAD_GROUP
350
28
  3
ACAD_LAYOUT
350
D
  3
ACAD_MATERIAL
350
2B
  3
ACAD_MLINESTYLE
350
29
  3
ACAD_PLOTSETTINGS
350
2A
  3
ACAD_PLOTSTYLENAME
350
8
  3
ACAD_TABLESTYLE
350
2D
  3
AcDbVariableDictionary
350
197
  3
AcmDictionary
350
149
  3
AMG
350
138
  0
DICTIONARY
  5
14
330
13
100
AcDbDictionary
280
     1
281
     1
  3
ACAD_LAYERFILTERS
360
15
  3
ACLYDICTIONARY
360
16
  0
DICTIONARY
  5
3
330
2
100
AcDbDictionary
280
     1
281
     1
  3
ACAD_SORTENTS
360
136
  0
DICTIONARY
  5
2C
102
{ACAD_REACTORS
330
9
102
}
330
9
100
AcDbDictionary
281
     1
  0
DICTIONARY
  5
28
102
{ACAD_REACTORS
330
9
102
}
330
9
100
AcDbDictionary
281
     1
  0
DICTIONARY
  5
D
102
{ACAD_REACTORS
330
9
102
}
330
9
100
AcDbDictionary
281
     1
  3
Layout1
350
12
  3
Model
350
C
  0
DICTIONARY
  5
2B
102
{ACAD_REACTORS
330
9
102
}
330
9
100
AcDbDictionary
281
     1
  0
DICTIONARY
  5
29
102
{ACAD_REACTORS
330
9
102
}
330
9
100
AcDbDictionary
281
     1
  3
Standard
350
30
  0
DICTIONARY
  5
2A
102
{ACAD_REACTORS
330
9
102
}
330
9
100
AcDbDictionary
281
     1
  0
ACDBDICTIONARYWDFLT
  5
8
102
{ACAD_REACTORS
330
9
102
}
330
9
100
AcDbDictionary
281
     1
  3
Normal
350
7
100
AcDbDictionaryWithDefault
340
7
  0
DICTIONARY
  5
2D
102
{ACAD_REACTORS
330
9
102
}
330
9
100
AcDbDictionary
281
     1
  3
Standard
350
31
  0
DICTIONARY
  5
197
102
{ACAD_REACTORS
330
9
102
}
330
9
100
AcDbDictionary
281
     1
  3
CTABLESTYLE
350
198
  0
DICTIONARY
  5
149
102
{ACAD_REACTORS
330
9
102
}
330
9
100
AcDbDictionary
281
     1
  3
AcmStdDictionary
350
14A
  0
DICTIONARY
  5
138
102
{ACAD_REACTORS
330
9
102
}
330
9
100
AcDbDictionary
281
     1
  3
AcMgSettings
350
142
  3
AMGLAYCFG
350
137
  0
DICTIONARY
  5
15
102
{ACAD_REACTORS
330
14
102
}
330
14
100
AcDbDictionary
281
     1
  0
DICTIONARY
  5
16
102
{ACAD_REACTORS
330
14
102
}
330
14
100
AcDbDictionary
281
     1
1001
ACAD
1000
<All
  0
SORTENTSTABLE
  5
136
102
{ACAD_REACTORS
330
3
102
}
330
3
100
AcDbSortentsTable
330
2
331
40
  5
D6
331
DA
  5
3C
331
61
  5
B7
331
BC
  5
5A
331
43
  5
D3
331
B9
  5
5D
331
BF
  5
57
331
46
  5
D0
331
49
  5
CD
331
E0
  5
36
331
4F
  5
C7
331
C5
  5
51
331
4C
  5
CA
331
C2
  5
54
331
135
  5
32
331
CB
  5
4B
331
52
  5
C4
331
C8
  5
4E
331
CE
  5
48
331
55
  5
C1
331
37
  5
DF
331
34
  5
133
331
DD
  5
39
331
3A
  5
DC
331
D1
  5
45
331
D4
  5
42
331
5B
  5
BB
331
B6
  5
B3
331
3D
  5
D9
331
B3
  5
B6
331
D7
  5
3F
331
58
  5
BE
331
D8
  5
3E
331
BA
  5
5C
331
41
  5
D5
331
BD
  5
59
331
44
  5
D2
331
DE
  5
38
331
133
  5
34
331
DB
  5
3B
331
E1
  5
35
331
4D
  5
C9
331
C3
  5
53
331
4A
  5
CC
331
C0
  5
56
331
C9
  5
4D
331
50
  5
C6
331
C6
  5
50
331
53
  5
C3
331
32
  5
135
331
35
  5
E1
331
38
  5
DE
331
D2
  5
44
331
59
  5
BD
331
CF
  5
47
331
5C
  5
BA
331
B4
  5
B5
331
3B
  5
DB
331
3E
  5
D8
331
D5
  5
41
331
B7
  5
61
331
56
  5
C0
331
CC
  5
4A
331
47
  5
CF
331
60
  5
B8
331
B8
  5
60
331
42
  5
D4
331
D9
  5
3D
331
134
  5
33
331
DC
  5
3A
331
DF
  5
37
331
4B
  5
CB
331
C1
  5
55
331
48
  5
CE
331
BE
  5
58
331
51
  5
C5
331
C7
  5
4F
331
4E
  5
C8
331
C4
  5
52
331
33
  5
134
331
CD
  5
49
331
54
  5
C2
331
CA
  5
4C
331
45
  5
D1
331
D0
  5
46
331
57
  5
BF
331
5A
  5
BC
331
39
  5
DD
331
3C
  5
DA
331
D3
  5
43
331
D6
  5
40
331
5D
  5
B9
331
3F
  5
D7
331
B5
  5
B4
331
36
  5
E0
331
BB
  5
5B
  0
LAYOUT
  5
12
102
{ACAD_REACTORS
330
D
102
}
330
D
100
AcDbPlotSettings
  1

  2

  4

  6

 40
0.0
 41
0.0
 42
0.0
 43
0.0
 44
0.0
 45
0.0
 46
0.0
 47
0.0
 48
0.0
 49
0.0
140
0.0
141
0.0
142
1.0
143
1.0
 70
   688
 72
     0
 73
     0
 74
     5
  7

 75
    16
147
1.0
 76
     0
 77
     2
 78
   300
148
0.0
149
0.0
100
AcDbLayout
  1
Layout1
 70
     1
 71
     1
 10
0.0
 20
0.0
 11
12.0
 21
9.0
 12
0.0
 22
0.0
 32
0.0
 14
1.000000000000000E+20
 24
1.000000000000000E+20
 34
1.000000000000000E+20
 15
-1.000000000000000E+20
 25
-1.000000000000000E+20
 35
-1.000000000000000E+20
146
0.0
 13
0.0
 23
0.0
 33
0.0
 16
1.0
 26
0.0
 36
0.0
 17
0.0
 27
1.0
 37
0.0
 76
     0
330
F
  0
LAYOUT
  5
C
102
{ACAD_REACTORS
330
D
102
}
330
D
100
AcDbPlotSettings
  1

  2
\\pltrpc-8w56871\RW-240WP
  4
User152
  6

 40
3.174999952316284
 41
3.174999952316284
 42
3.17498779296875
 43
3.17498779296875
 44
914.3999633789062
 45
609.5999755859375
 46
0.0
 47
0.0
 48
17.46949962063536
 49
7.977165582743523
140
51.96662025021637
141
25.72876422178547
142
1.0
143
1.0
 70
 11952
 72
     0
 73
     0
 74
     4
  7

 75
    16
147
1.0
 76
     0
 77
     2
 78
   300
148
-443.7252903641381
149
-202.6200058016855
100
AcDbLayout
  1
Model
 70
     1
 71
     0
 10
0.0
 20
0.0
 11
12.0
 21
9.0
 12
0.0
 22
0.0
 32
0.0
 14
0.0
 24
0.0
 34
0.0
 15
0.0
 25
0.0
 35
0.0
146
0.0
 13
0.0
 23
0.0
 33
0.0
 16
1.0
 26
0.0
 36
0.0
 17
0.0
 27
1.0
 37
0.0
 76
     0
330
2
1001
ACAD_PSEXT
1000
\\pltrpc-8w56871\RW-240WP
1000
RW-240 WINPRINT
1000
R&D Office
1000
Ricoh 240W plotter / copier /scanner
1070
     0
  0
MLINESTYLE
  5
30
102
{ACAD_REACTORS
330
29
102
}
330
29
100
AcDbMlineStyle
  2
STANDARD
 70
     0
  3

 62
   256
 51
90.0
 52
90.0
 71
     2
 49
0.5
 62
   256
  6
BYLAYER
 49
-0.5
 62
   256
  6
BYLAYER
  0
ACDBPLACEHOLDER
  5
7
102
{ACAD_REACTORS
330
8
102
}
330
8
  0
TABLESTYLE
  5
31
102
{ACAD_REACTORS
330
2D
102
}
330
2D
100
AcDbTableStyle
  3
Standard
 70
     0
 71
     0
 40
0.06
 41
0.06
280
     0
281
     0
  7
STANDARD
140
0.18
170
     2
 62
     0
 63
     7
283
     0
274
    -2
284
     1
 64
     0
275
    -2
285
     1
 65
     0
276
    -2
286
     1
 66
     0
277
    -2
287
     1
 67
     0
278
    -2
288
     1
 68
     0
279
    -2
289
     1
 69
     0
  7
STANDARD
140
0.25
170
     5
 62
     0
 63
     7
283
     0
274
    -2
284
     1
 64
     0
275
    -2
285
     1
 65
     0
276
    -2
286
     1
 66
     0
277
    -2
287
     1
 67
     0
278
    -2
288
     1
 68
     0
279
    -2
289
     1
 69
     0
  7
STANDARD
140
0.18
170
     5
 62
     0
 63
     7
283
     0
274
    -2
284
     1
 64
     0
275
    -2
285
     1
 65
     0
276
    -2
286
     1
 66
     0
277
    -2
287
     1
 67
     0
278
    -2
288
     1
 68
     0
279
    -2
289
     1
 69
     0
  0
DICTIONARYVAR
  5
198
102
{ACAD_REACTORS
330
197
102
}
330
197
100
DictionaryVariables
280
     0
  1
STANDARD
  0
DICTIONARY
  5
14A
102
{ACAD_REACTORS
330
149
102
}
330
149
100
AcDbDictionary
281
     1
  3
ANSI
350
14B
  0
DICTIONARY
  5
142
102
{ACAD_REACTORS
330
138
102
}
330
138
100
AcDbDictionary
281
     1
  3
DWGSETTINGS
350
141
  3
FEM
350
143
  3
Shaft
350
144
  3
TRANSSETTINGS
350
145
  0
ENDSEC
  0
EOF
